PrimaNota.ru - самый крупный в мире бесплатный архив песенных текстов, аккордов, табулатур и нот


Alan Jackson - Amazing grace - таба, видео

Регистрация Запомнить меня
Войти через:  Facebook Google Twitter Vk Yandex Mail.ru

Alan Jackson - Amazing grace - таба, видео

Печатать
Просмотров: 148


------------------------------------------------------------------------------------------------------------------------------------
--------------0----0----------------------------0-----0------3--0--3--0--3--0----------------------------0----0--------------
----------0-----0------2--0----------------0-----0------2------------------------0------0-0-----------0----0-----2--0-------
------0-----------------------2--0------0--------------------------------------------0-2------2-0--0---------------------------
------------------------------------------------------------------------------------------------------------------------------------
------------------------------------------------------------------------------------------------------------------------------------



------------------------------------------------------------------------------------------------------------------------------------
--------------0----0----------------------------0-----0------3--0--3--0--3--0----------------------------0----0--------------
----------0-----0------2--0----------------0-----0------2------------------------0------0-0-----------0----0-----2--0-------
------0-----------------------2--0------0--------------------------------------------0-2------2-0--0---------------------------
------------------------------------------------------------------------------------------------------------------------------------
------------------------------------------------------------------------------------------------------------------------------------



-------------------------------------------------------------0----0----0----------------------------------------------------------
---------------2----2--0------------------------2----2--0---2----2----2----------------------------------2-----2--0----------
-----------2-----2--------2-----------------2-----2------------------------2---------2--2--------------2----2--------2--------
------2-----------------------4--2------2--------------------------------------2--4---------4--2----2--------------------------
------------------------------------------------------------------------------------------------------------------------------------
------------------------------------------------------------------------------------------------------------------------------------



-------------------------------------------------------------0----0----0----------------------------------------------------------
---------------2----2--0------------------------2----2--0---2----2----2----------------------------------2-----2--0----------
-----------2-----2--------2-----------------2-----2------------------------2---------2--2--------------2----2--------2--------
------2-----------------------4--2------2--------------------------------------2--4---------4--2----2--------------------------
------------------------------------------------------------------------------------------------------------------------------------
------------------------------------------------------------------------------------------------------------------------------------



Добавлено: 09.11.2013
Другие материалы по этой песне:
  • Аккорды и текст

Страница создана 09.11.2013
http://primanota.ru/alan-jackson/amazing-grace-chords.htm
Привет, Гость.
Предлагаем пройти революционный курс по гитаре.
Подарок от PrimaNota.Ru, забирай!