PrimaNota.ru - самый крупный в мире бесплатный архив песенных текстов, аккордов, табулатур и нот


Alain Clark - Let Some Air In - таба, видео

Регистрация Запомнить меня
Войти через:  Facebook Google Twitter Vk Yandex Mail.ru

Alain Clark - Let Some Air In - таба, видео

Печатать
Просмотров: 116
Уроки эстрадного вокала в Санкт-Петербурге
Hey There,

This is a tab For Alain Clark's 'Let Some Air In'
It's an acoustic version I've tabbed from the following source:
http://www.youtube.com/watch?v=W5_9ehxyYBE

Enjoy!

Alain Clark - Let Some Air In

Intro
e|-------------1---------------------------------5----5555--5555---|
B|--------3----3-----------6----6-----------6----6----5555--8888---|
G|----------2--2----------------x-------------7--7----7777--7777---|
D|----3--------3-------5-----5--5-------7--------7----7777--5555---| 2x
A|-1----1------1----3----3------3----5----5------5----5555--5555---|
E|----------------------------------------------------5555--5555---|

Verse
e|-------------1---------------------------------5----5555--5555---|
B|--------3----3-----------6----6-----------6----6----5555--8888---|
G|----------2--2----------------x-------------7--7----7777--7777---|
D|----3--------3-------5-----5--5-------7--------7----7777--5555---| 4x
A|-1----1------1----3----3------3----5----5------5----5555--5555---|
E|----------------------------------------------------5555--5555---|

Pre-Chorus
e|-1--1x-1--1x111--------------------5--5x-5--5x555---5555--5555---|
B|-3--3x-3--3x333---6--6x-6--6x666---6--6x-6--6x666---5555--8888---|
G|-2--2x-2--2x222---x--xx-x--xxxxx---7--7x-7--7x777---7777--7777---|
D|-3--3x-3--3x333---5--5x-5--5x555---7--7x-7--7x777---7777--5555---| 2x
A|-1--1x-1--1x111---3--3x-3--3x333---5--5x-5--5x555---5555--5555---|
E|----------------------------------------------------5555--5555---|

e|-1---------------------------------5-----------------------------|
B|-3---------------------------------6-----------------------------|
G|-2---------------------------------7-----------------------------|
D|-3---------------------------------7-----------------------------|
A|-1---------------------------------5-----------------------------|
E|-----------------------------------------------------------------|

Chorus
e|-1---111---1----xx---------------xx5---555---5----xx5555--5555---|
B|-3---333---3----xx6---666---6----xx6---666---6----xx5555--8888---|
G|-2---222---2----xxx---xxx---x----xx7---777---7----xx7777--7777---|
D|-3---333---3----xx5---555---5----xx7---777---7----xx7777--5555---| 2x
A|-1---111---1----xx3---333---3----xx5---555---5----xx5555--5555---|
E|--------------------------------------------------xx5555--5555---|

Verse
e|-------------1---------------------------------5----5555--5555---|
B|--------3----3-----------6----6-----------6----6----5555--8888---|
G|----------2--2----------------x-------------7--7----7777--7777---|
D|----3--------3-------5-----5--5-------7--------7----7777--5555---| 2x
A|-1----1------1----3----3------3----5----5------5----5555--5555---|
E|----------------------------------------------------5555--5555---|

Pre-Chorus
e|-1--1x-1--1x111--------------------5--5x-5--5x555---5555--5555---|
B|-3--3x-3--3x333---6--6x-6--6x666---6--6x-6--6x666---5555--8888---|
G|-2--2x-2--2x222---x--xx-x--xxxxx---7--7x-7--7x777---7777--7777---|
D|-3--3x-3--3x333---5--5x-5--5x555---7--7x-7--7x777---7777--5555---| 2x
A|-1--1x-1--1x111---3--3x-3--3x333---5--5x-5--5x555---5555--5555---|
E|----------------------------------------------------5555--5555---|

e|-1---------------------------------5-----------------------------|
B|-3---------------------------------6-----------------------------|
G|-2---------------------------------7-----------------------------|
D|-3---------------------------------7-----------------------------|
A|-1---------------------------------5-----------------------------|
E|-----------------------------------------------------------------|


Chorus
e|-1---111---1----xx---------------xx5---555---5----xx5555--5555---|
B|-3---333---3----xx6---666---6----xx6---666---6----xx5555--8888---|
G|-2---222---2----xxx---xxx---x----xx7---777---7----xx7777--7777---|
D|-3---333---3----xx5---555---5----xx7---777---7----xx7777--5555---| 2x
A|-1---111---1----xx3---333---3----xx5---555---5----xx5555--5555---|
E|--------------------------------------------------xx5555--5555---|

Outro
e|-1---11---111----------------------5---55---555-----5555--5555---|
B|-3---33---333-----6---66---666-----6---66---666-----5555--8888---|
G|-2---22---222-----x---xx---xxx-----7---77---777-----7777--7777---|
D|-3---33---333-----5---55---555-----7---77---777-----7777--5555---| 2x
A|-1---11---111-----3---33---333-----5---55---555-----5555--5555---|
E|----------------------------------------------------5555--5555---|

e|-1-
B|-3-
G|-2-
D|-3-
A|-1-
E|---

Tabbed by: Geldkwestie
Добавлено: 26.11.2013
Другие материалы по этой песне:
  • Аккорды и текст

Страница создана 26.11.2013
http://primanota.ru/alain-clark/let-some-air-in-chords.htm
Привет, Гость.
Предлагаем пройти революционный курс по гитаре.
Подарок от PrimaNota.Ru, забирай!