PrimaNota.ru - самый крупный в мире бесплатный архив песенных текстов, аккордов, табулатур и нот


Alaia And Gallo - Ole Que Ole - таба, видео

Регистрация Запомнить меня
Войти через:  Facebook Google Twitter Vk Yandex Mail.ru

Alaia And Gallo - Ole Que Ole - таба, видео

Печатать
Просмотров: 129
Уроки эстрадного вокала в Санкт-Петербурге
-------------------------------------------------------------------------------
                             Ole Que Ole (Radio Edit) - Alaia & Gallo
-------------------------------------------------------------------------------
Tabbed by: SmoothPlaying
E-mail: robin1@vr-web.de

It's pretty fast, so it's an intermediate tab. I recommend a classical guitar or a steel string one.
Have fun!!
 
Tuning: Regular


PART A: Main Riff


e|----|-----------------|------------------|
B|--8-|-10------------8-|-10-------------8-|
G|-9-9|7---9--77-6---9-9|7---9--79------9-9|
D|----|-----------------|------------------|
A|----|-----------------|------------------|
E|----|-----------------|------------------|



PART B: Repeat

e|----------------|
B|-10----8--10--8-|
G|7---9-9-97---9-9|
D|----------------|
A|----------------|
E|----------------|



Part C: Chords

Simply repeat: Dm7 - Em7

    Dm7  Em7
  
e|---5----7--|
B|---6----8--|
G|---5----7--|
D|---7----9--|
A|---5----7--|
E|-----------|

Structure:

Part A   4x
Part B   4x
Pause    4x
Part A   8x
Part B   8x
Part C   16x (after the 8th time, Part A fades in and Part C fades out)
Part A   4x
Part B   7x (8th is pause)
Part A   8x
Part B   8x


Добавлено: 03.01.2016
Другие материалы по этой песне:
  • Аккорды и текст

Страница создана 03.01.2016
http://primanota.ru/alaia-and-gallo/ole-que-ole-chords.htm
Привет, Гость.
Предлагаем пройти революционный курс по гитаре.
Подарок от PrimaNota.Ru, забирай!