PrimaNota.ru - самый крупный в мире бесплатный архив песенных текстов, аккордов, табулатур и нот


Al Petteway - West Wind - таба, видео

Регистрация Запомнить меня
Войти через:  Facebook Google Twitter Vk Yandex Mail.ru

Al Petteway - West Wind - таба, видео

Печатать
Просмотров: 128
6=D   3=G
5=A   2=A
4=D   1=D


D---------------------------------------------------------------------------|
A----------------------------------------0----------------------------------|
D----2----p0--------------------------0--------------------------------0----|
G----------------4----2---p0---4---------------2------2-h4-----2------/5----|
A----------------0-------------0---------------0----------------------------|
D----------------0-------------0--------------------------------------------|

D---------------------------------------------------------------------------|
A---------------------------------------------------------------------------|
D---------------------------------------------2----0------------------------|
G----4-----2---p0------------------0--------------------4-----2---p0----4---|
A----0---0----------2-----0--2-----0--------------------0---------------0---|
D----0--------------5--------------0--------------------0---------------0---|

D---------------------------------------------------------------------------|
A-----0---------------------------------------------------------------------|
D-0-------------------------------0-----------------------------------------|
G----------2----2--h4-----2------/5-----4------2---p0------------------0----|
A----------0----------------------------0----0-----------2----0---2----0----|
D---------------------------------------0----------------5-------------0----|

D-----------0-----------0-------0-------------------------------------------|
A------4------------4-----------4-----4----2--p0----------------------------|
D-4-------------4-----------0-----------------------2------0-------0----2---|
G---------------------------------------------------0----------4------------|
A-----------2-------------------0---------------------------------------0---|
D---------------------------------------------------0-----------------------|

D--------------------------------------------------------------------0-------|
A-----------------------------------0-----------------------------4--------4-|
D-----0------------------------0----------------------------0--4---------4---|
G-0--------4----2---p0-----4------------2-------------0--2-------------------|
A----------2---------------2------------0----0--2--4-----------------2-------|
D--------------------------2-------------------------------------------------|

D--0------0------------------------------------------------------------------|
A---------4^--(4)---h2--p0---------------------------------------------------|
D-----0----------------------2----0-------0---2--------0---------------------|
G----------------------------0--------4------------0--------4----2--p0----2--|
A---------0----------------------------------4--------2----0-------------0---|
D----------------------------0-----------------------------------------------|

D---------------0------------------------------------------------------------|
A------------------0--------------0----------------------------------------0-|
D-0-------------------0---------------0--------------------------------0-----|
G-----------0------------0--0--------------2---h4-----2----p0----4-----------|
A------4----------------------------------------0----------------0-----------|
D-----------5-----------------------------------0----------------0-----------|

D----------------------------------------------------------------------------|
A----------------------------------------------------------------------------|
D-------------------------------------2----p0--------------------------------|
G--2-----------4p2p0---2---h4----5---------------4-----2--p0---------------0-|
A--0------0--------------------------------------0---0----------2----0--2----|
D----------------------0-------------------------0--------------5------------|

D-----0----------------------------------------------------------------------|
A--------0-------------------------------------------------------------------|
D-----------0----------------2---0h2p0----------------------------0------2---|
G--0-----------2---2---h4-----------------4------2--p0----4-----------4----4-|
A--0--------------------------------------0---------------0---0--------------|
D--0---------------0----------------------0---------------0------------------|

D----------------------------------------------------------------------------|
A----------------------------------------------------------------------------|
D--------------------------------0-----2---p0--------------------------------|
G-2---------2-h4-p2-p0--2---h4-------------------4------2---p0-------------0-|
A-0------0--------------0------------------------0---0----------2----0---2---|
D------------------------------------------------0--------------5------------|

D------0--------------------0------------0-----------0-------0---------------|
A---------0--------------------0-----4-----------4-----------4^---(4)--h2----|p0
D------------0--------------------4----------4-----------0-------------------|
G-0------------2---2---h4----------------------------------------------------|
A-0--------------------------------------2-------------------0---------------|
D-0-----------------0--------------------------------------------------------|

D---------------------------------------------------------------------------|
A------------------------------------------------------0--------------------|
D-2---4--p2--p0------0---2-----0------------------0-------------------------|
G-0--------------4----------0-------4----4--4--4----------2------------0--2-|
A------------------------0----------2----------2----------0----0--2--4------|
D-0--------------------------------------------2----------------------------|

D----------0-----------0--------0--------------------------------------------|
A-------4----------4------------4^---(4)--p2---p0----------------------------|
D-0--4---------4-----------0-------------------------2-----4--p2--p0-------0-|
G----------------------------------------------------0-----------------4-----|
A----------2--------------------0--------------------------------------------|
D----------------------------------------------------0-----------------------|

D---------------------------------------------0---2----2-h4----4--p2---0---4-|
A---------------------------------------------------------0----------------0-|
D-2-------0--------------------0--------------------------2----------------2-|
G-----0--------4----2--p0---2-----------0-----------------0----------------0-|
A-4-------2----0------------0-------4---0------------------------------------|
D---------------------------------------0------------------------------------|

D-5----7----2-------2--h4--2--------2------4------2--p0--------------------0-|
A-----------0-----------------0------------0--------------------0------------|
D-4----7----0--------------------0-----0---2--------------4----------4/2-----|
G-0----0--------2--------------------------0---0-----------------------------|
A-----------0----------------------------------------------------------------|
D---------------------------------------------------------5----------------0-|

D-0-----------------------0--------2----2--h4------------2--p0----4-------5-|
A----0--------------------------------------0----0-------------------0------|
D-------0---------0----------0--------------2--------2------------2-------4-|
G----------0--h2------4---------0-----------0---------------------0---------|
A---------------------------------------------------------------------------|
D---------------------0-----------------------------------------------------|

D--7----2-------------2--h4----5-----5----4-------2h4p2p0-------------------|
A-------0-------------------------------------0--------------------0--------|
D--7----0---------------------------------------------------4---------4/2---|
G--0--------------2-----------------------0---------------------0-----------|
A-------0----0--------------------------------------------------------------|
D-----------------------------------------------------------5---------------|

D--0--------------------------------------0-----9-----11----12--------------|
A------0----------------------------0---------------------------------------|
D----------2-p0------------0--------------------------------11--------------|
G-----------------0----2--------4---------------------------------------9---|
A------------------------------------------------------------------9--------|
D--0----------------------------0----------------------------9--------------|

D------12---12-------11---9/7------7--------5/4--7---------5----4--------4---|
A---------------------------------------0----------------------------------0-|
D-11--------12------------------------------------------6------------0-------|
G----------------------------------0------------------7------------4---------|
A------------0-----------------------------------0--------------2------------|
D----------------------------------------------------------------------------|

D-4----5/7------------------0---------0---------9---11----12-------------12-|
A-0----------7---------7----------------------------------------------------|
D-0-----------------0------------6---------0--------------------------11----|
G--------------------------------5---------------------------------9--------|
A-2----------0---0---------------------------------------------9------------|
D-2--------------------------------------------------------9----------------|

D-12-----11--9/7---7-------5/4---7----------7---5------4-----2--0--2/5-------|
A----------------------0-------------------------------0-------------------4-|
D-12------------------------------------6-------4------2---------------------|
G------------------0-----------------7-----------------0-----------2/5-------|
A--0-----------------------------0---------------------------------0---------|
D----------------------------------------------------------------------------|

D-0--------------------------------------------------------------------------|
A-----4^--(4)--0------------0-----------------------------------------0------|
D-----------------0--------------0--------------------------------0----------|
G---------------------2/4-------------2--h4----4p2--p0--2--h4------------0h2-|
A-----------------------------------------0-----------------0--------------0-|
D-0---------------------------------------0-----------------0----------------|

D---------------------------------------------------------------------------|
A---------------------------------------------------------------------------|
D----------------------0----------------------------------------------------|
G----2----0-h2------4-h5----2-h4------2---p0-----------------0-----0----0---|
A------------0-----------------0----0-----------2-----0---2--------0--------|
D------------------------------0----------------0------------------0--------|

D---------------------------------------------------------------------------|
A----------------------------------------------0----------------------------|
D------------------------------------------0--------------------------------|
G-0----0-p0----2--h4-----4p2--p0--2--h4-------------------------------------|
A-0----------------0------------------0-------------0-h2-----2---0-h2-------|
D-0----------------0------------------0----------------0------------0-------|

D---------------------------------------------------------------------0------|
A----------------------------------------------------------------4---------4-|
D-----------------------------------------------------------4------------4---|
G-2-h4-------2--p0----------------0-----0-------0-----0----------------------|
A----0----0----------2-----0---2--------0-------------0---------------2------|
D----0---------------0------------------0-------------0----------------------|

D-0--------0----------------------------------------------------------------|
A----------4^---(4)---p2-p0-------------------------------------------------|
D-----0------------------------2-----0-------0---2--------0-----------------|
G------------------------------0---------4------------0---------4-----2--p0-|
A----------0-------------------------------------0--------------2-----------|
D------------------------------0--------------------------------------------|

D----------------------------------------------0------------0-------0-------|
A----------0--------------------------------4----------4------------4^--(4)-|
D----0--------------------------------0--4---------4------------0-----------|
G-4------------2----------------0--2----------------------------------------|
A-2------------0------0--2--4------------------2--------------------0-------|
D-2-------------------------------------------------------------------------|

D------------------------------------------------------------------------0--|
A-p2-p0---------------------------------------------------------------------|
D----------2------0-------0---2------0---------------------0----------------|
G----------0----------4----------0-------4-----2---0---2--------------0-----|
A-----------------------------4------2---0-------------0---------4----------|
D----------0----------------------------------------------------------5-----|

D---------------------------------------------------0-----------------------|
A---0-----------------------------------------------0-----------------------|
D--------4--------2---------0-----------------------2-----------------------|
G------------0---------0----------0----2-h4---------4-----------------------|
A-----------------------------------------0---------0-----------------------|
D--------5--------4---------2-------------0---------0-----------------------|

sorry about the whole spaced together thing, but when it comes to tabbing I have no 
of time. listen t if song you want to know the exact timeing.
Добавлено: 09.03.2012
Вам также может быть интересно:
Другие материалы по этой песне:
  • Аккорды и текст

Страница создана 09.03.2012
http://primanota.ru/al-petteway/west-wind-chords.htm
Привет, Гость.
Предлагаем пройти революционный курс по гитаре.
Подарок от PrimaNota.Ru, забирай!