PrimaNota.ru - самый крупный в мире бесплатный архив песенных текстов, аккордов, табулатур и нот


Al Petteway - Sligo Creek - таба, видео

Регистрация Запомнить меня
Войти через:  Facebook Google Twitter Vk Yandex Mail.ru

Al Petteway - Sligo Creek - таба, видео

Печатать
Просмотров: 193
Уроки эстрадного вокала в Санкт-Петербурге
----------------------------------------------------------------------------
                             Sligo Creek - Al Petteway
----------------------------------------------------------------------------

Tabed by:india1992
Email:chriskoller1992@yahoo.com

*Email me for any corrections*

Tuning:DADGAd (open Dsus4)

Order:
Part 1
Part 2
Part 1
Part 2
Part 3
Ending
(Repeat whole song)


Part 1:
d|-0-----------|-----0--------|-----------------|------0--------|
A|-3/5-5-5\3-0-|-2b3---3r2-0--|-0---------------|----0----------|
G|-------------|--------------|---0-------------|---------------|
D|-------------|-0------------|-----3-2h3p2p0---|-0------0-2----|
A|-------------|--------------|---------------3-|---------------|
D|-0-----------|--------------|-----------------|---------------|

d|----------------|-------------|-0--0-x--------|-0--0-x--------|
A|----------------|-------------|-0--0-x-----0--|-0--0-x-----0--|
G|----0-2h3p2p0---|-0-----------|-2--2-x-----2--|-2--2-x-----2--|
D|-3------------3-|----2---0----|-0----x-----0--|-0----x-----0--|
A|----------------|-3----3---3--|-0----x--------|-0----x--------|
D|-3----3---------|-------------|-0----x--0-----|-0----x--0-----|

d|-------------|-----0--------|-----------------|------0--------|
A|-3/5-5-5\3-0-|-2b3---3r2-0--|-0---------------|----0----------|
G|-------------|--------------|---0-------------|---------------|
D|-------------|-0------------|-----3-2h3p2p0---|-0------0-2----|
A|-------------|--------------|---------------3-|---------------|
D|-0-----------|--------------|-----------------|---------------|

d|----------------|-------------|-0--0-x-----0--|-0--0-x-----0--|
A|----------------|-------------|-0--0-x-----0--|-0--0-x-----0--|
G|----0-2h3p2p0---|-0-----------|-0--0-x-----0--|-2--2-x-----0--|
D|-3------------3-|----2---0----|-0----x--------|-0----x--------|
A|----------------|-3----3---3--|-5----x--------|-0----x--------|
D|-3----3---------|-------------|-5----x--5-----|-0----x--5-----|

--------------------------------------------------------------------------

Part 2:
d|-0--2-2h3p2p0----|-2----------|----0-----------|------------|
A|--------------0--|-------0-2--|-3-----3p2p0----|-------0----|
G|----2-2----------|------------|-------------0--|-4-------0--|
D|-0---------------|----2-------|----------------|---0--------|
A|-----------------|-0----0-----|-3--------------|------------|
D|-----------------|------------|----------------|-5---5------|

d|----------------|--------------|-0--0-x-------|-0--0-x------|
A|----------------|--------------|-0--0-x----0--|-0--0-x----0-|
G|----0-2h3p2p0---|--0-----------|-2--2-x----2--|-2--2-x----2-|
D|-3------------3-|-----2---0----|-0----x----0--|-0----x----0-|
A|----------------|--3----3---3--|-0----x-------|-0----x------|
D|-3----3---------|--------------|-0----x--0----|-0----x--0---|

d|-0--2-2h3p2p0----|-2----------|----0-----------|------------|
A|--------------0--|-------0-2--|-3-----3p2p0----|-------0----|
G|----2-2----------|------------|-------------0--|-4-------0--|
D|-0---------------|----2-------|----------------|---0--------|
A|-----------------|-0----0-----|-3--------------|------------|
D|-----------------|------------|----------------|-5---5------|

d|----------------|--------------|-0--0-x-------|-0--0-x------|
A|----------------|--------------|-0--0-x----0--|-0--0-x----0-|
G|----0-2h3p2p0---|--0-----------|-2--2-x----2--|-2--2-x----2-|
D|-3------------3-|-----2---0----|-0----x----0--|-0----x----0-|
A|----------------|--3----3---3--|-0----x-------|-0----x------|
D|-3----3---------|--------------|-0----x--0----|-0----x--0---|

---------------------------------------------------------------------

Part 1:
d|-0-----------|-----0--------|-----------------|------0--------|
A|-3/5-5-5\3-0-|-2b3---3r2-0--|-0---------------|----0----------|
G|-------------|--------------|---0-------------|---------------|
D|-------------|-0------------|-----3-2h3p2p0---|-0------0-2----|
A|-------------|--------------|---------------3-|---------------|
D|-0-----------|--------------|-----------------|---------------|

d|----------------|-------------|-0--0-x--------|-0--0-x--------|
A|----------------|-------------|-0--0-x-----0--|-0--0-x-----0--|
G|----0-2h3p2p0---|-0-----------|-2--2-x-----2--|-2--2-x-----2--|
D|-3------------3-|----2---0----|-0----x-----0--|-0----x-----0--|
A|----------------|-3----3---3--|-0----x--------|-0----x--------|
D|-3----3---------|-------------|-0----x--0-----|-0----x--0-----|

d|-------------|-----0--------|-----------------|------0--------|
A|-3/5-5-5\3-0-|-2b3---3r2-0--|-0---------------|----0----------|
G|-------------|--------------|---0-------------|---------------|
D|-------------|-0------------|-----3-2h3p2p0---|-0------0-2----|
A|-------------|--------------|---------------3-|---------------|
D|-0-----------|--------------|-----------------|---------------|

d|----------------|-------------|-0--0-x-----0--|-0--0-x-----0--|
A|----------------|-------------|-0--0-x-----0--|-0--0-x-----0--|
G|----0-2h3p2p0---|-0-----------|-0--0-x-----0--|-2--2-x-----0--|
D|-3------------3-|----2---0----|-0----x--------|-0----x--------|
A|----------------|-3----3---3--|-5----x--------|-0----x--------|
D|-3----3---------|-------------|-5----x--5-----|-0----x--5-----|

----------------------------------------------------------------------

Part 2:
d|-0--2-2h3p2p0----|-2----------|----0-----------|------------|
A|--------------0--|-------0-2--|-3-----3p2p0----|-------0----|
G|----2-2----------|------------|-------------0--|-4-------0--|
D|-0---------------|----2-------|----------------|---0--------|
A|-----------------|-0----0-----|-3--------------|------------|
D|-----------------|------------|----------------|-5---5------|

d|----------------|--------------|-0--0-x-------|-0--0-x------|
A|----------------|--------------|-0--0-x----0--|-0--0-x----0-|
G|----0-2h3p2p0---|--0-----------|-2--2-x----2--|-2--2-x----2-|
D|-3------------3-|-----2---0----|-0----x----0--|-0----x----0-|
A|----------------|--3----3---3--|-0----x-------|-0----x------|
D|-3----3---------|--------------|-0----x--0----|-0----x--0---|

d|-0--2-2h3p2p0----|-2----------|----0-----------|------------|
A|--------------0--|-------0-2--|-3-----3p2p0----|-------0----|
G|----2-2----------|------------|-------------0--|-4-------0--|
D|-0---------------|----2-------|----------------|---0--------|
A|-----------------|-0----0-----|-3--------------|------------|
D|-----------------|------------|----------------|-5---5------|

d|----------------|--------------|-0--0-x-------|-0--0-x------|
A|----------------|--------------|-0--0-x----0--|-0--0-x----0-|
G|----0-2h3p2p0---|--0-----------|-2--2-x----2--|-2--2-x----2-|
D|-3------------3-|-----2---0----|-0----x----0--|-0----x----0-|
A|----------------|--3----3---3--|-0----x-------|-0----x------|
D|-3----3---------|--------------|-0----x--0----|-0----x--0---|

-------------------------------------------------------------------

Part 3:
d|----7---5-0----|--3-0-----0----|----7---5-0----|---0------0-|
A|---------------|------3-0---0--|------------0--|-3---0-5----|
G|----7---5-0----|--3-0----------|----7---5-0----|------------|
D|------0-----0--|------3-0------|------0-----0--|-3-----5----|
A|---------------|---------------|---------------|------------|
D|--0------------|---------------|--0------------|------------|

d|----7---5-0----|--3-0-----0----|----7---5-0----|---0------0-|
A|---------------|------3-0---0--|------------0--|-3---0-5----|
G|----7---5-0----|--3-0----------|----7---5-0----|------------|
D|------0-----0--|------3-0------|------0-----0--|-3-----5----|
A|---------------|---------------|---------------|------------|
D|--0------------|---------------|--0------------|------------|

d|---10---7-0----|-5-0-----0----|---10---7-0----|-3-0------0--|
A|---------------|-----0-3---0--|------------0--|-----0-5-----|
G|---10---7-0----|-5-0----------|---10---7-0----|-3-----------|
D|------0-----0--|-----0-3------|------0-----0--|-------5-----|
A|---------------|--------------|---------------|-------------|
D|-0-------------|--------------|-0-------------|-------------|

d|---10---7-0----|-5-0-----0----|---10---7-0----|-3-0------0--|
A|---------------|-----0-3---0--|------------0--|-----0-5-----|
G|---10---7-0----|-5-0----------|---10---7-0----|-3-----------|
D|------0-----0--|-----0-3------|------0-----0--|-------5-----|
A|---------------|--------------|---------------|-------------|
D|-0-------------|--------------|-0-------------|-------------|

d|-0-0--0-|-0-0--0--|
A|-8-8----|-5-5-----|
G|-0-0----|-0-0-----|
D|-8-8----|-5-5-----|
D|-0-0----|-0-0-----|

d|----7---5-0----|--3-0-----0----|----7---5-0----|---0------0-|
A|---------------|------3-0---0--|------------0--|-3---0-5----|
G|----7---5-0----|--3-0----------|----7---5-0----|------------|
D|------0-----0--|------3-0------|------0-----0--|-3-----5----|
A|---------------|---------------|---------------|------------|
D|--0------------|---------------|--0------------|------------|

d|----7---5-0----|--3-0-----0----|----7---5-0----|---0------0-|
A|---------------|------3-0---0--|------------0--|-3---0-5----|
G|----7---5-0----|--3-0----------|----7---5-0----|------------|
D|------0-----0--|------3-0------|------0-----0--|-3-----5----|
A|---------------|---------------|---------------|------------|
D|--0------------|---------------|--0------------|------------|

d|---10---7-0----|-5-0-----0----|---10---7-0----|-3-0------0--|
A|---------------|-----0-3---0--|------------0--|-----0-5-----|
G|---10---7-0----|-5-0----------|---10---7-0----|-3-----------|
D|------0-----0--|-----0-3------|------0-----0--|-------5-----|
A|---------------|--------------|---------------|-------------|
D|-0-------------|--------------|-0-------------|-------------|

d|---10---7-0----|-5-0-----0----|---10---7-0----|-3-0------0--|
A|---------------|-----0-3---0--|------------0--|-----0-5-----|
G|---10---7-0----|-5-0----------|---10---7-0----|-3-----------|
D|------0-----0--|-----0-3------|------0-----0--|-------5-----|
A|---------------|--------------|---------------|-------------|
D|-0-------------|--------------|-0-------------|-------------|

d|-0-0--0--|-0-0--0--|
A|-8-8-----|-5-5-----|
G|-0-0-----|-0-0-----|
D|-8-8-----|-5-5-----|
A|-6-6-----|-3-3-----| 
D|-0-0-----|-0-0-----|

--------------------------------------------------------------------

Ending:
d|-0-0--0--|-0-0--0--|-0-------|
A|-2-2-----|-0-0-----|-0-------|
G|-0-0-----|-0-0-----|-2-------|
D|-2-2-----|-3-3-----|-0-------|
A|-0-0-----|-3-3-----|-0-------| 
D|-0-0-----|-3-3-----|-0-------|

---------------------------------------------------------------------
(Repeat whole song again):
Part 1:
d|-0-----------|-----0--------|-----------------|------0--------|
A|-3/5-5-5\3-0-|-2b3---3r2-0--|-0---------------|----0----------|
G|-------------|--------------|---0-------------|---------------|
D|-------------|-0------------|-----3-2h3p2p0---|-0------0-2----|
A|-------------|--------------|---------------3-|---------------|
D|-0-----------|--------------|-----------------|---------------|

d|----------------|-------------|-0--0-x--------|-0--0-x--------|
A|----------------|-------------|-0--0-x-----0--|-0--0-x-----0--|
G|----0-2h3p2p0---|-0-----------|-2--2-x-----2--|-2--2-x-----2--|
D|-3------------3-|----2---0----|-0----x-----0--|-0----x-----0--|
A|----------------|-3----3---3--|-0----x--------|-0----x--------|
D|-3----3---------|-------------|-0----x--0-----|-0----x--0-----|

d|-------------|-----0--------|-----------------|------0--------|
A|-3/5-5-5\3-0-|-2b3---3r2-0--|-0---------------|----0----------|
G|-------------|--------------|---0-------------|---------------|
D|-------------|-0------------|-----3-2h3p2p0---|-0------0-2----|
A|-------------|--------------|---------------3-|---------------|
D|-0-----------|--------------|-----------------|---------------|

d|----------------|-------------|-0--0-x-----0--|-0--0-x-----0--|
A|----------------|-------------|-0--0-x-----0--|-0--0-x-----0--|
G|----0-2h3p2p0---|-0-----------|-0--0-x-----0--|-2--2-x-----0--|
D|-3------------3-|----2---0----|-0----x--------|-0----x--------|
A|----------------|-3----3---3--|-5----x--------|-0----x--------|
D|-3----3---------|-------------|-5----x--5-----|-0----x--5-----|

--------------------------------------------------------------------------

Part 2:
d|-0--2-2h3p2p0----|-2----------|----0-----------|------------|
A|--------------0--|-------0-2--|-3-----3p2p0----|-------0----|
G|----2-2----------|------------|-------------0--|-4-------0--|
D|-0---------------|----2-------|----------------|---0--------|
A|-----------------|-0----0-----|-3--------------|------------|
D|-----------------|------------|----------------|-5---5------|

d|----------------|--------------|-0--0-x-------|-0--0-x------|
A|----------------|--------------|-0--0-x----0--|-0--0-x----0-|
G|----0-2h3p2p0---|--0-----------|-2--2-x----2--|-2--2-x----2-|
D|-3------------3-|-----2---0----|-0----x----0--|-0----x----0-|
A|----------------|--3----3---3--|-0----x-------|-0----x------|
D|-3----3---------|--------------|-0----x--0----|-0----x--0---|

d|-0--2-2h3p2p0----|-2----------|----0-----------|------------|
A|--------------0--|-------0-2--|-3-----3p2p0----|-------0----|
G|----2-2----------|------------|-------------0--|-4-------0--|
D|-0---------------|----2-------|----------------|---0--------|
A|-----------------|-0----0-----|-3--------------|------------|
D|-----------------|------------|----------------|-5---5------|

d|----------------|--------------|-0--0-x-------|-0--0-x------|
A|----------------|--------------|-0--0-x----0--|-0--0-x----0-|
G|----0-2h3p2p0---|--0-----------|-2--2-x----2--|-2--2-x----2-|
D|-3------------3-|-----2---0----|-0----x----0--|-0----x----0-|
A|----------------|--3----3---3--|-0----x-------|-0----x------|
D|-3----3---------|--------------|-0----x--0----|-0----x--0---|

---------------------------------------------------------------------

Part 1:
d|-0-----------|-----0--------|-----------------|------0--------|
A|-3/5-5-5\3-0-|-2b3---3r2-0--|-0---------------|----0----------|
G|-------------|--------------|---0-------------|---------------|
D|-------------|-0------------|-----3-2h3p2p0---|-0------0-2----|
A|-------------|--------------|---------------3-|---------------|
D|-0-----------|--------------|-----------------|---------------|

d|----------------|-------------|-0--0-x--------|-0--0-x--------|
A|----------------|-------------|-0--0-x-----0--|-0--0-x-----0--|
G|----0-2h3p2p0---|-0-----------|-2--2-x-----2--|-2--2-x-----2--|
D|-3------------3-|----2---0----|-0----x-----0--|-0----x-----0--|
A|----------------|-3----3---3--|-0----x--------|-0----x--------|
D|-3----3---------|-------------|-0----x--0-----|-0----x--0-----|

d|-------------|-----0--------|-----------------|------0--------|
A|-3/5-5-5\3-0-|-2b3---3r2-0--|-0---------------|----0----------|
G|-------------|--------------|---0-------------|---------------|
D|-------------|-0------------|-----3-2h3p2p0---|-0------0-2----|
A|-------------|--------------|---------------3-|---------------|
D|-0-----------|--------------|-----------------|---------------|

d|----------------|-------------|-0--0-x-----0--|-0--0-x-----0--|
A|----------------|-------------|-0--0-x-----0--|-0--0-x-----0--|
G|----0-2h3p2p0---|-0-----------|-0--0-x-----0--|-2--2-x-----0--|
D|-3------------3-|----2---0----|-0----x--------|-0----x--------|
A|----------------|-3----3---3--|-5----x--------|-0----x--------|
D|-3----3---------|-------------|-5----x--5-----|-0----x--5-----|

----------------------------------------------------------------------

Part 2:
d|-0--2-2h3p2p0----|-2----------|----0-----------|------------|
A|--------------0--|-------0-2--|-3-----3p2p0----|-------0----|
G|----2-2----------|------------|-------------0--|-4-------0--|
D|-0---------------|----2-------|----------------|---0--------|
A|-----------------|-0----0-----|-3--------------|------------|
D|-----------------|------------|----------------|-5---5------|

d|----------------|--------------|-0--0-x-------|-0--0-x------|
A|----------------|--------------|-0--0-x----0--|-0--0-x----0-|
G|----0-2h3p2p0---|--0-----------|-2--2-x----2--|-2--2-x----2-|
D|-3------------3-|-----2---0----|-0----x----0--|-0----x----0-|
A|----------------|--3----3---3--|-0----x-------|-0----x------|
D|-3----3---------|--------------|-0----x--0----|-0----x--0---|

d|-0--2-2h3p2p0----|-2----------|----0-----------|------------|
A|--------------0--|-------0-2--|-3-----3p2p0----|-------0----|
G|----2-2----------|------------|-------------0--|-4-------0--|
D|-0---------------|----2-------|----------------|---0--------|
A|-----------------|-0----0-----|-3--------------|------------|
D|-----------------|------------|----------------|-5---5------|

d|----------------|--------------|-0--0-x-------|-0--0-x------|
A|----------------|--------------|-0--0-x----0--|-0--0-x----0-|
G|----0-2h3p2p0---|--0-----------|-2--2-x----2--|-2--2-x----2-|
D|-3------------3-|-----2---0----|-0----x----0--|-0----x----0-|
A|----------------|--3----3---3--|-0----x-------|-0----x------|
D|-3----3---------|--------------|-0----x--0----|-0----x--0---|

-------------------------------------------------------------------

Part 3:
d|----7---5-0----|--3-0-----0----|----7---5-0----|---0------0-|
A|---------------|------3-0---0--|------------0--|-3---0-5----|
G|----7---5-0----|--3-0----------|----7---5-0----|------------|
D|------0-----0--|------3-0------|------0-----0--|-3-----5----|
A|---------------|---------------|---------------|------------|
D|--0------------|---------------|--0------------|------------|

d|----7---5-0----|--3-0-----0----|----7---5-0----|---0------0-|
A|---------------|------3-0---0--|------------0--|-3---0-5----|
G|----7---5-0----|--3-0----------|----7---5-0----|------------|
D|------0-----0--|------3-0------|------0-----0--|-3-----5----|
A|---------------|---------------|---------------|------------|
D|--0------------|---------------|--0------------|------------|

d|---10---7-0----|-5-0-----0----|---10---7-0----|-3-0------0--|
A|---------------|-----0-3---0--|------------0--|-----0-5-----|
G|---10---7-0----|-5-0----------|---10---7-0----|-3-----------|
D|------0-----0--|-----0-3------|------0-----0--|-------5-----|
A|---------------|--------------|---------------|-------------|
D|-0-------------|--------------|-0-------------|-------------|

d|---10---7-0----|-5-0-----0----|---10---7-0----|-3-0------0--|
A|---------------|-----0-3---0--|------------0--|-----0-5-----|
G|---10---7-0----|-5-0----------|---10---7-0----|-3-----------|
D|------0-----0--|-----0-3------|------0-----0--|-------5-----|
A|---------------|--------------|---------------|-------------|
D|-0-------------|--------------|-0-------------|-------------|

d|-0-0--0-|-0-0--0--|
A|-8-8----|-5-5-----|
G|-0-0----|-0-0-----|
D|-8-8----|-5-5-----|
D|-0-0----|-0-0-----|

d|----7---5-0----|--3-0-----0----|----7---5-0----|---0------0-|
A|---------------|------3-0---0--|------------0--|-3---0-5----|
G|----7---5-0----|--3-0----------|----7---5-0----|------------|
D|------0-----0--|------3-0------|------0-----0--|-3-----5----|
A|---------------|---------------|---------------|------------|
D|--0------------|---------------|--0------------|------------|

d|----7---5-0----|--3-0-----0----|----7---5-0----|---0------0-|
A|---------------|------3-0---0--|------------0--|-3---0-5----|
G|----7---5-0----|--3-0----------|----7---5-0----|------------|
D|------0-----0--|------3-0------|------0-----0--|-3-----5----|
A|---------------|---------------|---------------|------------|
D|--0------------|---------------|--0------------|------------|

d|---10---7-0----|-5-0-----0----|---10---7-0----|-3-0------0--|
A|---------------|-----0-3---0--|------------0--|-----0-5-----|
G|---10---7-0----|-5-0----------|---10---7-0----|-3-----------|
D|------0-----0--|-----0-3------|------0-----0--|-------5-----|
A|---------------|--------------|---------------|-------------|
D|-0-------------|--------------|-0-------------|-------------|

d|---10---7-0----|-5-0-----0----|---10---7-0----|-3-0------0--|
A|---------------|-----0-3---0--|------------0--|-----0-5-----|
G|---10---7-0----|-5-0----------|---10---7-0----|-3-----------|
D|------0-----0--|-----0-3------|------0-----0--|-------5-----|
A|---------------|--------------|---------------|-------------|
D|-0-------------|--------------|-0-------------|-------------|

d|-0-0--0--|-0-0--0--|
A|-8-8-----|-5-5-----|
G|-0-0-----|-0-0-----|
D|-8-8-----|-5-5-----|
A|-6-6-----|-3-3-----| 
D|-0-0-----|-0-0-----|

--------------------------------------------------------------------

Ending:
d|-0-0--0--|-0-0--0--|-0-------|
A|-2-2-----|-0-0-----|-0-------|
G|-0-0-----|-0-0-----|-2-------|
D|-2-2-----|-3-3-----|-0-------|
A|-0-0-----|-3-3-----|-0-------| 
D|-0-0-----|-3-3-----|-0-------|

---------------------------------------------------------------------
Добавлено: 17.07.2012
Вам также может быть интересно:
Другие материалы по этой песне:
  • Аккорды и текст

Страница создана 17.07.2012
http://primanota.ru/al-petteway/sligo-creek-chords.htm
Привет, Гость.
Предлагаем пройти революционный курс по гитаре.
Подарок от PrimaNota.Ru, забирай!