PrimaNota.ru - самый крупный в мире бесплатный архив песенных текстов, аккордов, табулатур и нот


Al Green - Still In Love With You - бас-таба, видео

Регистрация Запомнить меня
Войти через:  Facebook Google Twitter Vk Yandex Mail.ru

Al Green - Still In Love With You - бас-таба, видео

Печатать
Просмотров: 70
Уроки эстрадного вокала в Санкт-Петербурге
                               Still In Love With You
                                     Al Green

Bass                                                            Al Green 
                                                          Al Jackson Jr.
                                                         Willie Mitchell

As played by Leroy Hodges


Intro

|-----------------|-----------------|-----------------|-----------------|
|-----------------|-----------------|-----------------|---------3---3-4-|
|-------------2-3-|-----------------|-------------2-4-|-5-5-6-7---3-----|
|-3-3-3-3-3-3-----|-1-1-1-1-1-1-1-2-|-3-3-3-3-3-5-----|-----------------|
  E E E E E E E E   E E E E E E E E   E E E E E E E E   E E E E E E E E 

|-0-0-0-1-3-------|
|-----------------|
|-----------1-1-2-|
|-----------------|
  E E E E E E E E 

Verse 1

|--------/5/5/5---|--------/5/5/5---|-----------------|---------------------|
|-----------------|-----------------|-----------------|---------------------|
|-3-3-3---------3-|-3-3-3-3-------3-|-3-3-3-3-----3-2-|---------------------|
|-----------------|-----------------|---------3-------|-5-5-5-5-0-5-0-1-2-3-|
  E E Q   E E E E   E E E E E E E E   E E E.S Q   E E   E E E.S E E S S S S

|---------------------|---------------------|---------------------|-----------------|
|---------------------|---------------------|---------------------|-----------5-5-7-|
|---------5-5---------|---------5-5---------|---------5-5---------|---------5-------|
|-3-3-3-3-------3-2-1-|-3-3-3-3-------3-2-1-|-3-3-3-3-------3-2-1-|-3-3-3-3---------|
  E E E.S E E S S S S   E E E.S E E S S S S   E E E.S E E S S S S   E E E.S E E E E

|--------/5/5/5---|--------/5/5/5---|-----------------|-----------------|
|-----------------|-----------------|-----------------|-----------------|
|-3-3-3-3-------3-|-3-3-3-3-------3-|-3-3-3-3-----3-2-|-----------------|
|-----------------|-----------------|---------3-3-----|-5-5-5-5-0-5-0-2-|
  E E Q   E E E E   E E E E E E E E   E E E.S E E E E   E E E E E E E E

|---------------------|---------------------|-----------------|-----------------|
|---------------------|---------------------|-----------------|-5---3---2-------|
|---------5-5---------|---------5-5---------|---------5-5-----|-------------5---|
|-3-3-3-3-------3-2-1-|-3-3-3---------3-2-1-|-3-3-3-3---------|-----------------|
  E E E.S E E S S S S   E E Q   E E S S S S   E E E.S E E Q     Q   Q   Q   Q

|--------/5/5/5---|--------/5/5/5---|-----------------|---------------------|
|-----------------|-----------------|-----------------|---------------------|
|-3-3-3-3-------3-|-3-3-3-3-------3-|-3-3-3-3---3-3-2-|---------------------|
|-----------------|-----------------|---------3-------|-5-5-5-5-0-5-0-1-2-3-|
  E E E E E E E E   E E E E E E E E   E E E.S E.S E E   E E E.S E E S S S S

|---------------------|---------------------|-----------------|-----------------|
|---------------------|---------------------|-----------------|-5---3---2-------|
|---------5-5---------|---------5-5---------|---------5-5---5-|-------------5---|
|-3-3-3-3-------3-2-1-|-3-3-3---------3-2-1-|-3-3-3-3---------|-----------------|
  E E E.S E E S S S S   E E Q   E E S S S S   E E E.S E E E E   Q   Q   Q   Q

|---------------------|-----------------|---------------------|-----------------|
|---------------------|-----------------|---------------------|-----------------|
|-3-3-3-3---------3-2-|-3-3-3-3---------|---------------------|-----------------|
|---------3-3---3-----|---------3-3-3-4-|-5-5-5-5-0-0-0-1-2-3-|-5-5-5---5-5-3---|
  E E E.S E E S S S S   E E E.S E E E E   E E E.S E E S S S S   E E Q   E E Q

|---------------------|-----------------|-----------------|-----------------|
|---------------------|-----------------|-----------------|-----------------|
|-3-3-3-3---------3-2-|-3-3-3-3-----5-4-|-3-3-3---2-2-2---|---------5-5-5---|
|---------3-3---3-----|---------3-3-----|-----------------|-5-5-5-----------|
  E E E.S E E S S S S   E E E.S E E E E   E E Q   E E Q     E E Q   E E Q

Interlude 1

|-----------------|-----------------|-----------------|---------------------|
|-1-1-----------1-|-1-1-------------|-----3-3-3-1-3---|-----3-1-3-1---------|
|-----3-3-1---3---|-----3-3-1-3-1---|-----------------|---3---------3-0-----|
|-----------------|---------------3-|-1-1-----------1-|-1---------------1-2-|
  E E E.S Q   E E   E E E.S E E E E   E E E.S E E E E   E E E.S S S S S E E

|-------------------|-----------------|-----------------|-----------------|
|---------5-5-5-3---|---------5-5-----|-----------------|-----------------|
|-----5-5---------5-|-----5-5-------5-|-3-3-3---2-2-2---|---------5-5-5---|
|-3-3---------------|-3-3-------------|-----------------|-5-5-5-----------|
  E E E.S E E.S S S   E E E.S E Q   E   E E Q   E E Q     E E Q   E E Q

|-----------------|-----------------|
|-----------------|-5---3---2---0---|
|-----------------|-----------------|
|-3-3-3-3-3-3-3---|-----------------|
  E E E.S E E Q     Q   Q   Q   Q
 
Verse 2

|--------/5/5/5---|--------/5/5/5---|-----------------|---------------------|
|-----------------|-----------------|-----------------|---------------------|
|-3-3-3---------3-|-3-3-3-3-------3-|-3-3-3-3-----3-2-|---------------------|
|-----------------|-----------------|---------3-------|-5-5-5-5-0-5-0-1-2-3-|
  E E Q   E E E E   E E E E E E E E   E E E.S Q   E E   E E E.S E E S S S S

|---------------------|---------------------|-----------------|-----------------|
|---------------------|---------------------|-----------------|-5---3---2-------|
|---------5-5---------|---------5-5---------|---------5-5---5-|-------------5---|
|-3-3-3-3-------3-2-1-|-3-3-3-3-------3-2-1-|-3-3-3-3---------|-----------------|
  E E E.S E E S S S S   E E E.S E E S S S S   E E E.S E E E E   Q   Q   Q   Q

|-----------------|-----------------|---------------------|-----------------|
|-----------------|-----------------|---------------------|-----------------|
|-3-3-3-3-------2-|-3-3-3-3---------|---------------------|-----------------|
|---------3-3-----|---------3-3-3-4-|-5-5-----5-5-0-1-2-3-|-5-5-5-5-5-5-5-3-|
  E E E.S E E E E   E E E.S E E E E   E E Q   E E S S S S   E E E.S E E E E

|-----------------|-----------------|-----------------|-----------------|
|-----------------|-----------------|-----------------|-----------------|
|-3-3-3-3-----3-3-|-3-3-3-3-----5-4-|-3-3-3---2-2-2---|---------5-5-5-4-|
|---------3-3-----|---------3-3-----|-----------------|-5-5-5-----------|
  E E E.S E E E E   E E E.S E E E E   E E Q   E E Q     E E Q   E E E E

Interlude 2

|---------------------|-----------------|---------------------|---------------------|
|---------------------|-----------------|---------------------|---------------------|
|-3-3-3-3-------5-4-3-|-3-3-3-3---------|---------------------|-------------------2-|
|---------3-3---------|---------3-3-3-4-|-5-5-5-------0-1-2-3-|-5-5-5-5-5-5---3-5---|
  E E E.S E E S S S S   E E E.S E E E E   E E H       S S S S   E E E E E E S S S S

|---------------------|-----------------|-----------------|-----------------|
|---------------------|-----------------|-----------------|-----------------|
|-3-3-3-3-------5-5-4-|-3-3-3-3-------5-|-3-3-3---2-2-2---|---------2-2-2---|
|---------3-3---------|---------3-3-----|-----------------|-5-5-5-----------|
  E E E.S E E S S S S   E E E.S E E E E   E E Q   E E Q     E E Q   E E Q

|-----------------|-----------------|
|-----------------|-----------------|
|-3-3-3---2-2-2---|-0-0-0---5-5-----|
|-----------------|-------------0-1-|
  E E Q   E E Q     E E Q   E E E E

Outro

|---------------------|-----------------|---------------------|-----------------|
|---------------------|-----------------|---------------------|-----------------|
|-3-3-3-3-------5-4-3-|-3-3-3-3---------|---------------------|-----------------|
|---------3-3---------|---------3-3-3-4-|-5-5-5---5-5-0-1-2-3-|-5-5-5---5-5-5-5/|
  E E E.S E E S S S S   E E E.S E E E E   E E Q   E E S S S S   E E Q   E E E E

|-----------------||
|-----------------||
|-3-3-3-3-------5-||
|---------3-3-----||
  E E E.S E E E E




Key to rhythm notations:

W - Whole Note/Semi-Brieve
H - Half Note/Minim
Q - Quarter Note/Crotchet       Q. - Dotted Quarter Note
E - Eight Note/Quaver           E. - Dotted Eight Note
S - Sixteenth Note/Semi-Quaver  S. - Dotted Sixteenth Note
   
Добавлено: 22.05.2016
Вам также может быть интересно:
Другие материалы по этой песне:
  • Аккорды и текст

Страница создана 22.05.2016
http://primanota.ru/al-green/still-in-love-with-you-chords.htm
Привет, Гость.
Предлагаем пройти революционный курс по гитаре.
Подарок от PrimaNota.Ru, забирай!