PrimaNota.ru - самый крупный в мире бесплатный архив песенных текстов, аккордов, табулатур и нот


Al Bairre - We Move On - аккорды и текст, видео

Регистрация Запомнить меня
Войти через:  Facebook Google Twitter Vk Yandex Mail.ru

Al Bairre - We Move On - аккорды и текст, видео

Печатать
Просмотров: 123
We Move On
Al Bairre
-------------------------------------------------------------------------------
                We move on - Al Bairre
-------------------------------------------------------------------------------
Tabbed by:
E-mail:

Chords used: E, B, F#, A 
 
Tuning:
         E   B    F#   A
e|-------7---7----9----12---------------------------------------------------------|
B|-------9---7----11---14----------------------------------------------------------|
G|-------9---8----11---14----------------------------------------------------------|
D|-------9---9----11---14----------------------------------------------------------|
A|-------7---9----9----12---------------------------------------------------------|
E|-------7---7----9----12---------------------------------------------------------|

Fast strumming throughout until after the 2nd verse

E            B                 F#    
RUN,RUN,RUN, RUN UNTIL YOU'RE DONE
            A                   E
Just turned 19, you've had your fun
E                       B                     F# 
There's so much in this world that looks like me
                 A              E 
Who the hell am I now meant to be
E               B              F# 
Buy it, buy it, everyone's got one
                 A                    E
I'm so excited, I'm going to look so dumb
E                     B                 F# 
And I could learn to walk and talk like you
           A                            E 
Or I could learn to try something brand new

then the woo's thats just the same chords played again

 E              B           
I'M SO TIRED OF BEING WHO I AM
F#                         A       
You stole my heart, I just didn't understand
    E                         B                        
That when you don't say much, well, you really say it all
F#                      A                 E
You don't like me and I don't like you at all
     E             B               F# 
And I won't give in as it starts again
           A                    E                     B
It's all a game, I just wanna win and you change your mind
                 F#               A               E
Well, change is fine, we all move on, we all move on

woos again keep strumming fast then as soon as you finish it drops to a waltz time signature, same chords.

i play it like this


NOW I'M SO COLD
Lovers in autumn was only a story I'm told
When John died out in the garden all I could think of was you and your love
And your love, and your love, and your love



         E          B         F#    A
 (slide to A)
e|-------7--7-------7--7------9--9-/12---------------------------------------------------------|
B|-------9--9-------7--7-----11--11/14----------------------------------------------------------|
G|-------9--9-------8--8-----11--11/14----------------------------------------------------------|
D|-------9--9-------9--9-----11--11/14----------------------------------------------------------|
A|-------7--7-------9--9------9--9-/12---------------------------------------------------------|
E|---7---7--7---7---7--7--9---9--9-/12---------------------------------------------------------|

strum down 




back to fast strum throughout the rest of the song 

We move on, on
We move on, on



************************************

| /   slide up
| \   slide down
| h   hammer-on
| p   pull-off
| ~   vibrato
| +   harmonic
| x   Mute note
| b   Bend
| pb  Pre-bend
| br  Bend release
| pbr Pre-bend release
| brb Bend release bend

************************************
Добавлено: 02.06.2016
Другие материалы по этой песне:
  • Аккорды и текст

Страница создана 02.06.2016
http://primanota.ru/al-bairre/we-move-on-chords.htm
Привет, Гость.
Предлагаем пройти революционный курс по гитаре.
Подарок от PrimaNota.Ru, забирай!