PrimaNota.ru - самый крупный в мире бесплатный архив песенных текстов, аккордов, табулатур и нот


Al Bairre - Bicycle - таба, видео

Регистрация Запомнить меня
Войти через:  Facebook Google Twitter Vk Yandex Mail.ru

Al Bairre - Bicycle - таба, видео

Печатать
Просмотров: 51
-------------------------------------------------------------------------------
                             SONG NAME - Band Name
-------------------------------------------------------------------------------
Tabbed by:
E-mail:

Tuning:

e|-------------------------------------------------------------------------------------|
B|-------------------------------------------------------------------------------------|
G|-------------------------------------------------------------------------------------|
D|-------------------------------------------------------------------------------------|
A|--7-77------7-77-7-99-7----------------------------------------------------------------|
E|--------77---------------------------------------------------------------------------|
This is played throughout the song until around the 1:18 mark when the bridge goes as so
(can play around with the rate of which you play each note)
e|---------------------------------------------------------------------------|
B|---------------------------------------------------------------------------|
G|---------------------------------------------------------------------------|
D|-------6-7-6----6-7-6---6-7-6-9-12-9-7-------------------------------------|
A|---7---------7--------7----------------7-----------------------------------|
E|---------------------------------------------------------------------------| X3 then 
back to the first riff


the chords that are played by kyle are just E and B strumming can be figured out by watching the
performance

                E   B
e|--------------7---7----------------------------------------------------------|
B|--------------9---7----------------------------------------------------------|
G|--------------9---8----------------------------------------------------------|
D|--------------9---9----------------------------------------------------------|
A|--------------7---9----------------------------------------------------------|
E|--------------7---7----------------------------------------------------------|

Think this is correct, first tab though so any alterations welcomed :)


************************************

| /   slide up
| \   slide down
| h   hammer-on
| p   pull-off
| ~   vibrato
| +   harmonic
| x   Mute note
| b   Bend
| pb  Pre-bend
| br  Bend release
| pbr Pre-bend release
| brb Bend release bend

************************************
Добавлено: 20.12.2015
Вам также может быть интересно:
Другие материалы по этой песне:
  • Аккорды и текст

Страница создана 20.12.2015
http://primanota.ru/al-bairre/bicycle-chords.htm
Привет, Гость.
Предлагаем пройти революционный курс по гитаре.
Подарок от PrimaNota.Ru, забирай!