PrimaNota.ru - самый крупный в мире бесплатный архив песенных текстов, аккордов, табулатур и нот


Аквариум, Борис Гребенщиков - Поколение дворников - аккорды и текст, видео

Регистрация Запомнить меня
Войти через:  Facebook Google Twitter Vk Yandex Mail.ru

Аквариум, Борис Гребенщиков - Поколение дворников - аккорды и текст, видео

Печатать
Просмотров: 1214
Поколение дворников
Аквариум, Борис Гребенщиков
     G
Поколение дворников и сторожей
Потеряло друг друга 
                           Em
В просторах бесконечной земли
                    C
Все разошлись по домам.
         G
В наше время, 
Когда каждый третий - герой,
                Em
Они не пишут статей,
                  C     D
Они не шлют телеграмм,
                  G     C
Они стоят как ступени,
         D
Когда горящая нефть
  G                     C
Хлещет с этажа на этаж,
     D                   G      C
И откуда-то им слышится пение.
           G              D
И кто я такой, чтобы говорить им,
Что это мираж?

Проигрыш: D

Мы молчали, как цуцики, 
Пока шла торговля всем,
Что только можно продать,
Включая наших детей,
И отравленный дождь 
Падает в гниющий залив.
И мы всё еще смотрим в экран,
А мы всё еще ждем новостей.
И наши отцы никогда не солгут нам.
Они не умеют лгать,
Как волк не умеет есть мясо,
Как птица не умеет летать

Проигрыш:

     C      G               C      G
E||-12--10-10--------7-8-|-12--10-10--------8-7-5-7-|
H||-13-----8---------8---|-13-----8---------8-------|
G||-12-----7---------7---|-12-----7---------7-------|
D||----------------------|--------------------------|
A||----------------------|--------------------------|
E||----------------------|--------------------------|

  Esus4  Em                C
E||-5--3-3-------8-7-5-7-|-3------------------------|
H||-5----5-------8-------|-5------------------------|
G||-4----4-------7-------|-5------------------------|
D||----------------------|--------------------------|
A||----------------------|--------------------------|
E||----------------------|--------------------------|

Скажи мне, что я сделал тебе, 
За что эта боль?
Но это без объяснений,
Это видимо что-то в крови,
Но я сам разжег огонь,
Который выжег меня изнутри.
Я ушел от закона, 
Но так не дошел до любви.
Но молись за нас, 
Молись за нас, если ты можешь.
У нас нет надежды, но этот путь наш
И голоса звучат все ближе и строже,
И будь я проклят, если это мираж.

Проигрыш: C | G | G | G
          C | G | G | G
          Esus4 | Em | Em | Em
          C | C | C | C

Соло на флейте: G
Добавлено: 28.07.2012
http://primanota.ru/akvarium/pokolenie-dvornikov-chords.htm
Привет, Гость.
Предлагаем пройти революционный курс по гитаре.
Подарок от PrimaNota.Ru, забирай!