PrimaNota.ru - самый крупный в мире бесплатный архив песенных текстов, аккордов, табулатур и нот


Akurat - Pa Pa Pa - аккорды и текст, видео

Регистрация Запомнить меня
Войти через:  Facebook Google Twitter Vk Yandex Mail.ru

Akurat - Pa Pa Pa - аккорды и текст, видео

Печатать
Просмотров: 74
Pa Pa Pa
Akurat
Akurat - Pa Pa Pa
Tabbed by: damienos

Tuning: Standard

    G#sus4    G#        F#sus4     F#        Esus4     E
e|--4------|--4------|--2-------|--2------|--0------|--0------|
B|--4------|--4------|--2-------|--2------|--0------|--0------|
G|--6------|--5------|--4-------|--3------|--2------|--1------|
D|--6------|--6------|--4-------|--4------|--2------|--2------|
A|--6------|--6------|--4-------|--4------|--2------|--2------|
E|--4------|--4------|--2-------|--2------|--0------|--0------|

[intro]
G#sus4 G# F#sus4 F#
F#m A Esus4 E Esus4 E
F#m A Esus4 E Esus4 E

[verse 1]
F#m             A
Jest już bardzo późno
         Esus4 E Esus4 E
Pora już spać
F#m             A
Jutro do przedszkola
            Esus4 E Esus4 E
Będę musiał wstać
F#m              A
Jestem tak szczęśliwy
                 Esus4 E Esus4 E
Bo w dzisiejszym dniu
F#m      A
Sam zawiązałem
            Esus4 E Esus4 E
Na kokardkę but

[pre chorus]
C#m         Bm
Kiedy o tym myślę
C#m             F#sus4 F#
Nie chce mi się spać

[chorus]
  D          E
A księżyc opowiada mi
C#m
Najpiękniejsze
       D
W jego życiu sny
     D            E
Na suficie dobrze widzę je
C#m          D
Są takie kolorowe
  D          E
A księżyc opowiada mi
C#m
Najpiękniejsze
       D
W jego życiu sny
     D            E
Na suficie dobrze widzę je
C#m          D
Są takie kolorowe
  D          E
A księżyc opowiada mi
G#sus4 G# F#sus4 F#

[verse 2]
F#m             A
Jest już bardzo późno
             Esus4 E Esus4 E
Chcę jeszcze spać
F#m             A
Zaraz do przedszkola
            Esus4 E Esus4 E
Będę musiał wstać
F#m           A
Jedno co mnie cieszy
           Esus4 E Esus4 E
To radosna myśl
F#m         A
Sam zawiążę buty
              Esus4 E Esus4 E
I podreptam w nich

[pre chorus]
C#m         Bm
Kiedy o tym myślę
C#m             F#sus4 F#        
Nie chce mi się spać

[chorus]
  D         E
A słońce opowiada mi
C#m
Najcieplejsze
       D
W jego życiu dni
      D            E
Na błękicie dobrze widzę je
C#m          D
Są takie kolorowe
  D         E
A słońce opowiada mi
C#m
Najcieplejsze
       D
W jego życiu dni
      D            E
Na błękicie dobrze widzę je
C#m          D
Są takie kolorowe

[outro]       repeat it 8 times
D
Pa, pa, pa...
E
Pa, pa, pa...
C#m
Pa, pa, pa...
D
Pa, pa, pa...

[solo]      solo begins with 5th repetition of outro, repeat solo 4 times

              D             E             C#m           D
e|----------|-------------|-------------|-------------|--------|
B|----------|-------------|-------------|-------------|--------|
G|----------|-------------|-------------|-------------|--------|
D|--11p9----|-----11p9----|-----11p9----|-----11p9----|--------|
A|-------12-|-9--------12-|-7--------11-|-7--------11-|-11/12--|
E|----------|-------------|-------------|-------------|--------|

enjoy!
Добавлено: 13.12.2015
Другие материалы по этой песне:
  • Аккорды и текст

Страница создана 13.12.2015
http://primanota.ru/akurat/pa-pa-pa-chords.htm
Привет, Гость.
Предлагаем пройти революционный курс по гитаре.
Подарок от PrimaNota.Ru, забирай!