PrimaNota.ru - самый крупный в мире бесплатный архив песенных текстов, аккордов, табулатур и нот


Aknestik - Missä On Mun Sinitaivas - таба

Регистрация Запомнить меня
Войти через:  Facebook Google Twitter Vk Yandex Mail.ru

Aknestik - Missä On Mun Sinitaivas - таба

Печатать
Просмотров: 29
   INTRO RIFF:

   E ----------------------------------------------------------------------------------|
   H ----------------------------------------------------------------------------------|
   G ----------------------------------------------------------------------------------|
   D -10---14-14-14-12-10-9-10----14-14-14-12-10-9-10---12-12--10--10-9----------------|
   A --------------------------10----------------------------------------12-10---------|
   E --------------------------------------------------------------------------12-10---|

   INTRO CHORDS:

   C   G   A   E   F   G   A   G

   VERSE (same solo/chords as in intro):


   CHORUS:

   C     G     A     E     F       G          A G  F          G          C   G     
                             MISSÄ ON MUN SINITAAAIVAS? MISSÄ MYRSKYINEN SÄÄ?
   F       G          A  G  F          G            C    G
     MINNE UIVAT PILVILAIVASTOT? MIHIN JOHTAA MATKA TÄÄ? 

   SOLO:

   E -----------------------------------------------------------------------------------|
   H -----------------------------------------------------------------------------------|
   G -----------------------------------------------------------------------------------|
   D -10---14-14-14-12-10-9-10----14-14-15\14-12-10-7-10-10-12-12-10---10-9-------------|
   A --------------------------10-------------------------------------------12-10-------|
   E -----------------------------------------------------------------------------12-10-|

                                                                           ^v
   E --------------------------------------------------------------------------------------|
   H --------------------------------------------------------------------------------------|
   G -----------------------------------------------------------------------------------17-|
   D ------10------10------10-12-10-------10-12-1414-14-12-10-----------10-12-14-14-14-----|
   A -10p12---10p12---10p12----------10p12--------------------12--10-12--------------------|
   E --------------------------------------------------------------------------------------|

                           ^                        ^
   E -------------------------------------------------------------------------------
   H -------------------------------------------------------------------------------
   G ---------------17-19-19-19-17-17---------17-19-19-19-17-17----16/17-16---------  Solo till
   D -14-15-14--/19-----------------------/19-------------------------------17-17---  FADE OUOT -->
   A -------------------------------------------------------------------------------  
   E -------------------------------------------------------------------------------


Structure of the song:

INTRO 2x
VERSE 2x
CHORUS
INTRO
SÄKEISTÖ 2x
KERTOSÄE
INTRO
SÄKEISTÖ 2x
KERTOSÄE
SOLO
FADE OUT...
Добавлено: 31.05.2016
Другие материалы по этой песне:
  • Аккорды и текст

Страница создана 31.05.2016
http://primanota.ru/aknestik/missa-on-mun-sinitaivas-chords.htm
Привет, Гость.
Предлагаем пройти революционный курс по гитаре.
Подарок от PrimaNota.Ru, забирай!