PrimaNota.ru - самый крупный в мире бесплатный архив песенных текстов, аккордов, табулатур и нот


Akissforjersey - You Carried Me While We Buried You - таба, видео

Регистрация Запомнить меня
Войти через:  Facebook Google Twitter Vk Yandex Mail.ru

Akissforjersey - You Carried Me While We Buried You - таба, видео

Печатать
Просмотров: 102
Уроки эстрадного вокала в Санкт-Петербурге
Akissforjersey-You Carried Me While we Buried You

STANDARD: INTRO
E-A-D-G-B-E

thefearlesschicken@gmail.com


E:------5------------------------------4----4/5--5--6--6--6--5-------|
B:----7---7--4/5----4/5-----4/5------7---7---------------------------|
G:-------------------------------------------------------------------|
D:-------------------------------------------------------------------|
A:--4-------------4------4--------4----------------------------------|
E:-------------------------------------------------------------------|


========================================================================
                                                                       =
E:--9--9--9--9--9--9--9--9--9--9--9----------9/0--7-7-7-7-7-7-7-----   =
B:-10--10-10-10-10-10-10-10-10-10-10---9-9-9-9--9-9-9-9-9-9-9-9-----   =
G:--9--9--9--9--9--9--9--9--9--9--9----9-9-9-9--9-9-9-9-9-9-9-9-----   =
D:------------------------------------------------------------------   =
A:------------------------------------------------------------------   =
E:------------------------------------------------------------------   =
                                                                       =
                                                                       =
E:--------5-7-7-7-7-7----------11/0-9-9-9-9-9-9---------------------   =
B:--9-9-9-9-9-9-9-9-9----9-9-9------9-9-9-9-9-9---------------------   =
G:--9-9-9-9-9-9-9-9-9----9-9-9------9-9-9-9-9-9---------------------   =
D:  ----------------------------------------------------------------   =
A:------------------------------------------------------------------   =
E: -----------------------------------------------------------------   =
                                                                       = x2
========================================================================
Добавлено: 10.01.2014
Другие материалы по этой песне:
  • Аккорды и текст

Страница создана 10.01.2014
http://primanota.ru/akissforjersey/you-carried-me-while-we-buried-you-chords.htm
Привет, Гость.
Предлагаем пройти революционный курс по гитаре.
Подарок от PrimaNota.Ru, забирай!