PrimaNota.ru - самый крупный в мире бесплатный архив песенных текстов, аккордов, табулатур и нот


Akissforjersey - Without Regret - бас-таба, видео

Регистрация Запомнить меня
Войти через:  Facebook Google Twitter Vk Yandex Mail.ru

Akissforjersey - Without Regret - бас-таба, видео

Печатать
Просмотров: 115
INTRO(x4)
F#|---------------------------|
C#|---3-3h53-7h87-------------|
Ab|----3---------8------------|
C#|--3------------10\3-7h87\--|

"In the center of the city..."
|---------------------------------------------------------------|
|---------------------------------------------------------------|
|---------------------------------------------------------------|
|88888888888888887777777777777757888888888888888877-77-77-77-007|

"Turn around and back down..."
|----------------------------------------------------------------------|
|----------------------------------------------------------------------|
|8h10p8\78-8h10p8\77-8h10p8\78-8h10p8\77-------------------------------|
|---------------------------------------000022223333555522-22-22-22-002|


|------------------------|
|----------------------10|
|--88--77--7--88--777h8--|
|00--00--00-00--00-------|

"So I'd die for you.."
|----------------------------------------------------------------------------------------|
|----------------------------------------------------------------------------------------|
|1111111133333333555555557777777788888888101010101010101012121212121212121212121212121212|
|----------------------------------------------------------------------------------------|


"So I'd die for you.."
|-------------------------------------------------------------|
|-3--3--------3--3--------3--3--5-5h75---3--3--5-10h1210------|
|1-10-13----1-10-13--5\--1-10-13-3----8-1-10-13-3--------1210\|
|-------------------------------------------------------------|


|----------------------------------------------------------------------------------------------|
|-----------------------------------------------------at-the-end-play-this---------------------|
|------------------------------------------------------------------------------10----10--------|
|888888887777777710101010101010101010101010101010-(x2)---------------------0-10--1010--10-0-10\|


"In the center of the city..."
|------------------------------------------------------------------------------------|
|------------------------------------------------------------------------------------|
|----------------7777777777777777888888888888888810101010101010101212121212121212----|
|8888888888888888----------------------------------------------------------------(x2)|

|------------------------------------|
|------------------------------------|
|--8p7-8p7-10p8-10p8--8p7-8p7-8p7-8p7|
|00---0---0----0----00---0---0---0---|

"Save yourself..."
|----------------------------------------------------------------------|
|----------------------------------------------------------------------|
|----------------------------------------------------------------------|
|------------8\0--------8\0--------8888\--------8\--------8\--------888|

"Save something that's of worth..."
|-------------------------------------------------------|
|-------------------------------------------------------|
|-------------------------------------------------------|
|8--8567777778--8--7777778--8--7777778--8--7777778(ring)|

"In the center of the city..."
|-----------------------------------------------------------------|
|-----------------------------------------------------------------|
|-----------------------------------------------------------------|
|8888888888888888777777777777775h788888888888888887777777777777777|

"Could you save enough..."
|------------------------------------------------------------------------------------------------|
|------------------------------------------------------------------------------------------------|
|------------------------------------------------------------------------------------------------|
|8-8-8-8-8-8-8-8-8-8-8-8-7-7-7-7-7-7-7-7-7-7-7-7-8-8-8-8-8-8-8-8-8-8-8-8-7-7-7-7-7-7-7-7-7-7-7-7\|

Tabbed by: Mikoy. (Dream Catch Her)
Mabuhay ang mga Pinoy na bahista!
Go USTe!
Добавлено: 22.01.2014
Вам также может быть интересно:
Другие материалы по этой песне:
  • Аккорды и текст

Страница создана 22.01.2014
http://primanota.ru/akissforjersey/without-regret-chords.htm
Привет, Гость.
Предлагаем пройти революционный курс по гитаре.
Подарок от PrimaNota.Ru, забирай!