PrimaNota.ru - самый крупный в мире бесплатный архив песенных текстов, аккордов, табулатур и нот


Akissforjersey - Victims (album) - таба, видео

Регистрация Запомнить меня
Войти через:  Facebook Google Twitter Vk Yandex Mail.ru

Akissforjersey - Victims (album) - таба, видео

Печатать
Просмотров: 136
Новый альбом группы 'Черный Кузнец' по культовому сериалу 'Сверхъестественное'!
----------------------------------------------------------------------------
                             Akissforjersey
                             Album: Victims
----------------------------------------------------------------------------

Finally!!! I made all of the guitar tabs for the album by Akissforjersey victims,
and I am happy that out of all the bands I made the album tab for this one. They
are so my kind of rock! Best Christian Rock Band = Akissforjersey. Please tell
people about this band! They deserve the best. Enjoy!

Username: dkm817 (same on X box live)
Email: guitardrums@rockfan.com

Album: Victims
Song...                      Rated (How fun to play on guitar)
1. Devices                          - 10 favorite song to play on the album
2. Oh, Infamous City                -
3. Believe                          - 8 not really the best, but still good
4. The Fire                         - 7.5 pretty fun if you got it down
5. Parallels                        - 8.5 Sure not my favorite song but cool
6. A Tree and Its Fruit             - 5 Not really fun, great to listen to
7. Faces                            - 8 Fun if you are able to play Gtr2
8. Salus Suas Exanderealas Concedit - 9 Very cool, and fun to play the Gtr1
9. II                               - 9.5 Second favorite to play, Love it
10.The Flood                        - 7 Not as challenging, but is different
11.The Evidence                     - 8.5 I like the similarity to II
============================================================================
============================================================================

1.
----------------------------------------------------------------------------
                              Akissforjersey
                                 Devices
----------------------------------------------------------------------------

Ok, let me first start off with saying that the vocalist is sick!!!! His pitches
and styles are so unique, and it is good to hear a bit of change. This song has
the coolest chorus ever! I wish they would read this because I want them to know,
that they have talent I haven't heard in a while. Well, if I have said enough,
the guitar pieces are very much like the band Before Their Eyes. So this is a bit
difficult. Enjoy!

Guitar 1 Rhythmic (C G C F A D)
Guitar 2 Lead     (C G C F A D)

Intro (00:00)-(00:22) light, distortion. Or just turn down volume.

Guitar 1
D------------------------------------------------------------------ |
A------------------------------------------------------------------ |
F-8--8--8-8-8-8-8--8--8-8-8--8-8-8-4--4--4-4-4-4-4--4--4-4-4--4-4-4 |
C-8--8--8-8-8-8-8--8--8-8-8--8-8-8-4--4--4-4-4-4-4--4--4-4-4--4-4-4 |
G-6--6--6-6-6-6-6--6--6-6-6--6-6-6-2--2--2-2-2-2-2--2--2-2-2--2-2-2 |
C------------------------------------------------------------------ |
Pm      . . .         . .    . .         . . .         . .    . .   |
                                                                    |-x2
Guitar 1                                                            |
D------------------------------------------------------------------ |
A------------------------------------------------------------------ |
F-6--6--6-6-6-6-6--6--6-6-6--6-6-6-8--8--8-8-8-8-8--8--8-8-8--8-8-8 |
C-6--6--6-6-6-6-6--6--6-6-6--6-6-6-8--8--8-8-8-8-8--8--8-8-8--8-8-8 |
G-4--4--4-4-4-4-4--4--4-4-4--4-4-4-6--6--6-6-6-6-6--6--6-6-6--6-6-6 |
C------------------------------------------------------------------ |
Pm      . . .         . .    . .         . . .         . .    . .   |

Guitar 2
D----------------------------------|
A-14~~~~~~-11~~~-18~~~-------------|
F----------------------------------|
C----------------------------------|
G----------------------9~~~~-8~~~~-|
C----------------------------------|

Verse 1 x2 (00:22)-(00:44)

Guitar 1 distorted
D-------------------------------------------------------------------|
A-------------------------------------------------------------------|
F-8--8--8-8-8-8-8--8--8-8-8--8-8-8-4--4--4-4-4-4-4--4--4-4-4--4-4-4-|
C-8--8--8-8-8-8-8--8--8-8-8--8-8-8-4--4--4-4-4-4-4--4--4-4-4--4-4-4-|
G-6--6--6-6-6-6-6--6--6-6-6--6-6-6-2--2--2-2-2-2-2--2--2-2-2--2-2-2-|
C-------------------------------------------------------------------|
Pm      . . .         . .    . .         . . .         . .    . .

Guitar 1
D-------------------------------------------------------------------|
A-------------------------------------------------------------------|
F-6--6--6-6-6-6-6--6--6-6-6--6-6-6-8--8--8-8-8-8-8--8--8-8-8--8-8-8-|
C-6--6--6-6-6-6-6--6--6-6-6--6-6-6-8--8--8-8-8-8-8--8--8-8-8--8-8-8-|
G-4--4--4-4-4-4-4--4--4-4-4--4-4-4-6--6--6-6-6-6-6--6--6-6-6--6-6-6-|
C-------------------------------------------------------------------|
Pm      . . .         . .    . .         . . .         . .    . .

Guitar 2
D-------------------------------------------------------------------|
A-------------------------------------------------------------------|
F-8--8--8-8-8-8-8--8--8-8-8--8-8-8-4--4--4-4-4-4-4--4--4-4-4--4-4-4-|
C-8--8--8-8-8-8-8--8--8-8-8--8-8-8-4--4--4-4-4-4-4--4--4-4-4--4-4-4-|
G-6--6--6-6-6-6-6--6--6-6-6--6-6-6-2--2--2-2-2-2-2--2--2-2-2--2-2-2-|
C-------------------------------------------------------------------|
Pm      . . .         . .    . .         . . .         . .    . .

Guitar 2
D-------------------------------------------------------------------|
A-------------------------------------------------------------------|
F-------------------------------------------------------------------|
C-6--6--6-6-6-6-6--6--6-6-6--6-6-6-1--1--1-1-1-1-1--1--1-1-1--1-1-1-|
G-6--6--6-6-6-6-6--6--6-6-6--6-6-6-1--1--1-1-1-1-1--1--1-1-1--1-1-1-|
C-6--6--6-6-6-6-6--6--6-6-6--6-6-6-1--1--1-1-1-1-1--1--1-1-1--1-1-1-|
Pm      . . .         . .    . .         . . .         . .    . .

Pre Chorus 1 x2 (00:44)-(00:54)

Guitar 1
D---------------------------------------------------------|
A---------------------------------------------------------|
F--------------------------------------8-6------8\6/9-9*--|
C-1--1---------------9-10-10-10--1--1------9-8------------|
G-1--1--9---8--------7-8--8--8---1--1---------------------|
C-1--1----8---8--7-8-------------1--1---------------------|

Guitar 2
D---------------------------------------------------------|
A---------------------------------------------------------|
F--------------------------------------8-6------8\6/9-9*--|
C-1--1---------------------------1--1------9-8------------|
G-1--1--9---8--------7-8--8--8---1--1---------------------|
C-1--1----8---8--7-8-------------1--1---------------------|

Chorus!!! x2 (00:54)-(01:16)

Guitar 1
D---------------------------------------------------------------------|
A---------------------------------------------------------------------|
F-8-8-8-8-8-8-8-8--6-6-6-6-6-6-6-6--4-4-4-4-4-4-4-4-------------------|
C-8-8-8-8-8-8-8-8--6-6-6-6-6-6-6-6--4-4-4-4-4-4-4-4--1-1-1-1--0-0-0-0-|
G-6-6-6-6-6-6-6-6--4-4-4-4-4-4-4-4--2-2-2-2-2-2-2-2--1-1-1-1--0-0-0-0-|
C----------------------------------------------------1-1-1-1--0-0-0-0-|

Guitar 2
D----------------------------------------------------------------------|
A----------------------------------------------------------------------|
F-8-8-8-8-8-8-8--11--10-10-10-10-10-10-10--16--15-15-15-15-15-15-15-15-|
C----------------------------------------------------------------------|
G----------------------------------------------------------------------|
C----------------------------------------------------------------------|

Guitar 2 continued
D--------------------------------------------|
A-18--18-18--16--16-16--14--14-14--16--16-16-|
F--------------------------------------------|
C--------------------------------------------|
G--------------------------------------------|
C--------------------------------------------|
Verse 2 (01:16)-(01:28)

Guitar 1 & 2 sorry if the sliding is confusing look at bottom for details
D-------------------------------------------------------------|
A-------------------------------------------------------------|
F---------------------------------------------------8\6/8\6/8-|
C------------------------------------6------4/6-8-9-----------|
G--------6----------6\4/6\4/6--4-6-7---7-6--------------------|
C-4-6-7----7--4-6-7-------------------------------------------|

Guitar 1 & 2 continued
D----------------------------------------------------------------|
A----------------------------------------------------------------|
F----------------------8\6/8\6/8-----------------------8\6/8\6/8-|
C-------6------4/6-8-9------------------6------4/6-8-9-----------|
G-4-6-7---7-6---------------------4-6-7---7-6--------------------|
C----------------------------------------------------------------|

Pre Chorus 2 x2 (01:28)-(01:39)

Guitar 1
D--------------------------------------------|
A--------------------------------------------|
F-----------------------------------------8~-|
C-6--1/6--1/6--1/6--1-1-1-1--6--1/6--1/6-----|
G-6--1/6--1/6--1/6--1-1-1-1--6--1/6--1/6-----|
C-6--1/6--1/6--1/6--1-1-1-1--6--1/6--1/6-----|
pm                  . . . .


Guitar 2
D--------------------------------------------|
A--------------------------------------------|
F-8--6/8--6/8--6/8--1-1-1-1--8--6/8--6/8--8--|b
C-8--6/8--6/8--6/8--1-1-1-1--8--6/8--6/8--8--|b
G-6--4/6--4/6--4/6--1-1-1-1--6--4/6--4/6--6--|b
C--------------------------------------------|


Chorus!!!!! x2 (01:39)-(02:01)

Guitar 1
D---------------------------------------------------------------------|
A---------------------------------------------------------------------|
F-8-8-8-8-8-8-8-8--6-6-6-6-6-6-6-6--4-4-4-4-4-4-4-4-------------------|
C-8-8-8-8-8-8-8-8--6-6-6-6-6-6-6-6--4-4-4-4-4-4-4-4--1-1-1-1--0-0-0-0-|
G-6-6-6-6-6-6-6-6--4-4-4-4-4-4-4-4--2-2-2-2-2-2-2-2--1-1-1-1--0-0-0-0-|
C----------------------------------------------------1-1-1-1--0-0-0-0-|

Guitar 2
D----------------------------------------------------------------------|
A----------------------------------------------------------------------|
F-8-8-8-8-8-8-8--11--10-10-10-10-10-10-10--16--15-15-15-15-15-15-15-15-|
C----------------------------------------------------------------------|
G----------------------------------------------------------------------|
C----------------------------------------------------------------------|

Guitar 2 continued
D--------------------------------------------|
A-18--18-18--16--16-16--14--14-14--16--16-16-|
F--------------------------------------------|
C--------------------------------------------|
G--------------------------------------------|
C--------------------------------------------|

Interlude 1 (02:01)-(02:18)

Guitar 1
D------------------------|
A------------------------|
F------------------------|
C-1~~~~~~~~~~~~~~~~~~~~~~
G-1~~~~~~~~~~~~~~~~~~~~~~
C-1~~~~~~~~~~~~~~~~~~~~~~

Guitar 2 (light palm mute)
D----------------------------------------------------------|
A----------------------------------------------------------|
F-8----8----8----8----8----8----8----8-----6---6---6---6---|
C---11---11---11---11---11---11---11---11----9---9---9---9-|
G----------------------------------------------------------|
C----------------------------------------------------------|
Pm. .  . .  . .  . .  . .  . .  . .  . .   . . . . . . . .
Guitar 2 continued
D-------------------------|
A-------------------------|
F-12----11----12----12-13-|
C----13----13----13-------|
G-------------------------|
C-------------------------|
  .  .  .  .  .  .  .  .

Interlude 2 (02:18)-(02:40)

Guitar 1 light distortion. Sorry, but this part very hard to hear so this is all I got.
D--------------------------------------------------------|
A--------------------------------------------------------|
F------4--4--4-------6--6--6-------8--8--8-------6--6--6-|
C---6--6--6--6----6--6--6--6----6--6--6--6----6--6--6--6-|
G-6-------------6-------------6-------------6------------|
C--------------------------------------------------------|

Breakdown 1 x2 (02:40)-(03:01)

Guitar 1 & 2
D----------------------------------------------------------------------------|
A----------------------------------------------------------------------------|
F-------------------9~-9-9~-9-9-9-9~-x-x-------------------------------------|
C-6~-6-6~-6-6-6-6~~-9~-9-9~-9-9-9-9~-x-x-2~-2-2~-2-2-2-2~~-4~-4-4~-4-4-4-4~~-|
G-6~-6-6~-6-6-6-6~~-7~-7-7~-7-7-7-7~-x-x-2~-2-2~-2-2-2-2~~-4~-4-4~-4-4-4-4~~-|
C-6~-6-6~-6-6-6-6~~----------------------2~-2-2~-2-2-2-2~~-4~-4-4~-4-4-4-4~~-|

Breakdown 2 x2 (03:01)-(03:23)

Guitar 1
D-----------------------------------------------------------------|
A-----------------------------------------------------------------|
F-----------------9-9-9-9-9-9-9-9---------------------------------|
C-6-6-6-6-6-6-6-6-9-9-9-9-9-9-9-9-2-2-2-2-2-2-2-2-4-4-4-4-4-4-4-4-|
G-6-6-6-6-6-6-6-6-7-7-7-7-7-7-7-7-2-2-2-2-2-2-2-2-4-4-4-4-4-4-4-4-|
C-6-6-6-6-6-6-6-6-----------------2-2-2-2-2-2-2-2-4-4-4-4-4-4-4-4-|

Outro (03:23)-(03:33)

Guitar 1
D-----------------|
A-----------------|
F-----------------|
C-7~~~~~~~~~~~~~~~
G-7~~~~~~~~~~~~~~~
C-7~~~~~~~~~~~~~~~

Guitar 2
D-----------------|
A-----------------|
F-8~~~~~~~~~~~~~~~
C-8~~~~~~~~~~~~~~~
G-6~~~~~~~~~~~~~~~
C-----------------
============================================================================
============================================================================

2.
----------------------------------------------------------------------------
                              Akissforjersey
                            Oh, Infamous City
----------------------------------------------------------------------------

Hello, this song, I have heard, is the best song of the album. But for some reason I
think of it as the best song. I think Devices is the best, but that is me. I still think it
to be a cool song to play on guitar. The best part of the whole album to me is in this 
though. That would be the intro! It is awesome and really sick if you know the right
Hehe Oh, Infamous City by Akissforjersey; that rhymes! Enjoy!

Username: dkm817 (same on X box live)
Email: guitardrums@rockfan.com

Guitar 1 Rhythmic (C# G# C# F# A# D#)
Guitar 2 Lead     (C# G# C# F# A# D#) (Maybe it is just me, but I think the tuning is
C#. Other people play it in Drop D, but if I do that it sounds too high of pitch for the
0 notes.)

Intro

Guitar 1
D#----------------------------------------------|
A#--------------------6~------------------------|
F#--------------------9~------------------------|
C#-5/12~-0-0-0-0-0-0--x--0-0-0-0-4/8-8~-8~-0-0--| x7
G#-5/12~-0-0-0-0-0-0--8~-0-0-0-0-4/8-8~-8~-0-0--|
C#-5/12~-0-0-0-0-0-0-----0-0-0-0-4/8-8~-8~-0-0--|
Pm       . . . . . .     . . . .           . .

Guitar 2
D#----------------------------------------------|
A#--------------------6~------------------------|
F#--------------------9~------------------------|
C#-5/12~-0-0-0-0-0-0--x--0-0-0-0-4/8-8~-8~-0-0--| x8
G#-5/12~-0-0-0-0-0-0--8~-0-0-0-0-4/8-8~-8~-0-0--|
C#-5/12~-0-0-0-0-0-0-----0-0-0-0-4/8-8~-8~-0-0--|
Pm       . . . . . .     . . . .           . .

Guitar 1
D#----------------------------------------------------------|
A#----------------------------------------------------------|
F#----------------------------------------------------------|
C#-0~~~~~~~-0-0--0-0--0--0-0--0-0--0--0-0--0-0--0--0-0--0-0-|
G#-0~~~~~~~-0-0--0-0--0--0-0--0-0--0--0-0--0-0--0--0-0--0-0-|
C#-0~~~~~~~-0-0--0-0--0--0-0--0-0--0--0-0--0-0--0--0-0--0-0-|

Guitar 2
D#----------------------------------------------------------|
A#----------6-6--6-6--6--6-6--6-6--6--6-6--6-6--6--6-6--6-6-|
F#----------9-9--9-9--9--9-9--9-9--9--9-9--9-9--9--9-9--9-9-|
C#-0~~~~~~~-------------------------------------------------|
G#-0~~~~~~~-------------------------------------------------|
C#-0~~~~~~~-------------------------------------------------|

Verse 1

Guitar 1
D#-------------------------------------------------------|
A#-------------------------------------------------------|
F#-------------------------------------------------------|
C#-0-0-0~-0---0---0----------0-0-0~-0--------------------| x2
G#-0-0-0~-0---0---0----------0-0-0~-0--------------------|
C#-0-0-0~-0---0---0--8-8-8-8-0-0-0~-0---7-8-7-5-5-7-5-3--|

Guitar 2
D#-13/17\13-------------------------12------|
A#------------------------------------------|
F#----------17~-14~-10~----10----10---------|
C#----------------------12----12-------12-12|
G#------------------------------------------|
C#------------------------------------------|
                                           |-- x2
Guitar 2                                   |
D#-13/17\13-------------------15---------- |
A#----------------------17-15------------- |
F#----------17~-14~-10~----------12-14-14~ |
C#---------------------------------------- |
G#---------------------------------------- |
C#---------------------------------------- |

Guitar 1
D#-------------------------------------|
A#-------------------------------------|
F#-------------------------------------|
C#-8-8-8-8-8-8-8-8-10-10-10-10-7-7-7-7-|
G#-8-8-8-8-8-8-8-8-10-10-10-10-7-7-7-7-|
C#-8-8-8-8-8-8-8-8-10-10-10-10-7-7-7-7-|

Guitar 2 (This was a hard part, so this could be a bit off.)
D#-----------------------13~-------------------------------------------------|
A#-------------13h15p13~-13~-15p13~-13-15p13~--------------------------------|
F#-------12h14--------------------------------------12h14-12h14-9~-9-9-9-9-9-|
C#-12h14--------------------------------------12h14-------------x--x-x-x-x-x-|
G#--------------------------------------------------------------7~-7-7-7-7-7-|
C#---------------------------------------------------------------------------|

Breakdown 1

Guitar 1
D#------------------------------------------|
A#-------5---5-5----------------------------|
F#-------8---8-8------------7-7-7-7-7-7-7-7-|
C#-8-7-0---0-------------0--x-x-x-x-x-x-x-x-|
G#-8-7-0---0-------------0--5-5-5-5-5-5-5-5-|
C#-8-7-0---0-----0-5-7-0-0------------------|
Pm     .   .             .

Guitar 2
D#----------------------------------------------------|
A#-------5---5-5--------------------------8p6~~-------|
F#-------8---8-8---------------------7h10-------7h10~-|
C#-8-7-0---0-------------0------7h10------------------|
G#-8-7-0---0-------------0--7h8-----------------------|
C#-8-7-0---0-----0-5-7-0-0----------------------------|
Pm     .   .             .

Guitar 1
D#----------------------------------------------|
A#-------5---5-5--------------------------------|
F#-------8---8-8------------10-10-10-10-6-6-6-6-|
C#-8-7-0---0-------------0--x--x--x--x--x-x-x-x-|
G#-8-7-0---0-------------0--8--8--8--8--4-4-4-4-|
C#-8-7-0---0-----0-5-7-0-0----------------------|
Pm     .   .             .
Guitar 2
D#-------------------------------------------------|
A#-------5---5-5-----------------------------------|
F#-------8---8-8-----------------------7-----------|
C#-8-7-0---0-------------0-------10------7~~-8~-7~-|
G#-8-7-0---0-------------0--7h10----10-------------|
C#-8-7-0---0-----0-5-7-0-0-------------------------|
Pm     .   .             .

Breakdown 2

Guitar 1
D#-----------------------------------------------------------------|
A#-----------------------------------------------------------------|
F#-----------------------------------------------------------------|
C#-0~~~------------------0-0---------------------------7--6--6--6--| x2
G#-0~~~------------------0-0---------------------------7--6--6--6--|
C#-0~~~------------------0-0---------------------------7--6--6--6--|

Guitar 1
D#-----------------------------------------------------------------|
A#-----------------------------------------------------------------|
F#------7-7-7-7-7-7-7-7-------10-10-10-10-10-10-10-10--------------|
C#-0~~~-x-x-x-x-x-x-x-x--0-0--x--x--x--x--x--x--x--x---7--6--6--6--| x2
G#-0~~~-5-5-5-5-5-5-5-5--0-0--8--8--8--8--8--8--8--8---7--6--6--6--|
C#-0~~~------------------0-0---------------------------7--6--6--6--|

Guitar 2
D#-----------------------------------------------------------------|
A#-----------------------------------------------------------------|
F#------7-7-7-7-7-7-7-7-------10-10-10-10-10-10-10-10--------------|
C#-0~~~-7-7-7-7-7-7-7-7--0-0--10-10-10-10-10-10-10-10--7--6--6--6--| x4
G#-0~~~-5-5-5-5-5-5-5-5--0-0--8--8--8--8--8--8--8--8---7--6--6--6--|
C#-0~~~------------------0-0---------------------------7--6--6--6--|

Pre Chorus

Guitar 1
D#-------------------------------------|
A#-------------------------------------|
F#-------------------------------------|
C#-8-8-8-8-8-8-8-8-10-10-10-10-7-7-7-7-|
G#-8-8-8-8-8-8-8-8-10-10-10-10-7-7-7-7-|
C#-8-8-8-8-8-8-8-8-10-10-10-10-7-7-7-7-|

Guitar 2
D#-----------------------13~-------------------------------------------------|
A#-------------13h15p13~-13~-15p13~-13-15p13~--------------------------------|
F#-------12h14--------------------------------------12h14-12h14-9~-9-9-9-9-9-|
C#-12h14--------------------------------------12h14-------------x--x-x-x-x-x-|
G#--------------------------------------------------------------7~-7-7-7-7-7-|
C#---------------------------------------------------------------------------|

Chorus

Guitar 1
D#---------------------------------------------|
A#---------------------------------------------|
F#---------------------------------------------|
C#-8-8-8-8-8-8-8-8-0-0-0-0-x-x-10-10-x-10-10~--| x4
G#-8-8-8-8-8-8-8-8-0-0-0-0-x-x-10-10-x-10-10~--|
C#-8-8-8-8-8-8-8-8-0-0-0-0-x-x-10-10-x-10-10~--|

Guitar 2
D#--------------------------------------------|
A#--------------------------------------------|
F#-7-7-7-7-7-7-7-7-5-5-5-5-x-x-10-10-x-10-9~--|
C#-x-x-x-x-x-x-x-x-x-x-x-x-x-x-x--x--x-x--x---| x4
G#-5-5-5-5-5-5-5-5-3-3-3-3-x-x-8--8--x-8--7~--|
C#--------------------------------------------|

Breakdown 3

Guitar 1 & 2
D#-----------------------------------------------|
A#-----------------------------------------------|
F#-----------------------------------------------|
C#-0-0---0-0----0-0---0-0--0-0---0-0---0-0---0-0-|
G#-0-0---0-0----0-0---0-0--0-0---0-0---0-0---0-0-|
C#-0-0---0-0----0-0---0-0--0-0---0-0---0-0---0-0-|
Pm . .   . .    . .   . .  . .   . .   . .   . .

Guitar 1
D#---------------------------------------------|
A#---------------------------------------------|
F#---------------------------------------------|
C#-0-0---0-0----0-0---0-0--0-0---0-0---8~~~~~~-|
G#-0-0---0-0----0-0---0-0--0-0---0-0---8~~~~~~-|
C#-0-0---0-0----0-0---0-0--0-0---0-0---8~~~~~~-|

Guitar 2
D#---------------------------------------------|
A#---------------------------------------------|
F#-------------------------------------5~~~~~~-|
C#-0-0---0-0----0-0---0-0--0-0---0-0---x-------|
G#-0-0---0-0----0-0---0-0--0-0---0-0---3~~~~~~-|
C#-0-0---0-0----0-0---0-0--0-0---0-0-----------|

Guitar 1
D#-----------------------------------------------|
A#-----------------------------------------------|
F#-----------------------------------------------|
C#-0-0---0-0----0-0---0-0--0-0---0-0---0-0---0-0-|
G#-0-0---0-0----0-0---0-0--0-0---0-0---0-0---0-0-|
C#-0-0---0-0----0-0---0-0--0-0---0-0---0-0---0-0-|
Pm . .   . .    . .   . .  . .   . .   . .   . .

Guitar 1
D#---------------------------------------------|
A#---------------------------------------------|
F#---------------------------------------------|
C#-0-0---0-0----0-0---0-0--0-0---0-0---8~~~~~~-|
G#-0-0---0-0----0-0---0-0--0-0---0-0---8~~~~~~-|
C#-0-0---0-0----0-0---0-0--0-0---0-0---8~~~~~~-|

Guitar 2 this is hard to read probably, but I tried my best to make it easy
D#--------------------------------------- |
A#--------------------------------------- |
F#-----------10~-----------10~-------10~- |
C#-12~-12h14-----12~-12h14-----12h14----- |
G#--------------------------------------- |
C#--------------------------------------- |
                                          |-- x4
Guitar 2 continued                        |
D#----------------------------------------|
A#-----13----13------------13----13-------|
F#-----------------10~-----------------10~|
C#-12~----12----12-----12~----12----12----|
G#----------------------------------------|
C#----------------------------------------|

Interlude 1

Guitar 1
D#----------------------------------------------------------------------|
A#----------------------------------------------------------------------|
F#----------------------------------------------------------------------|
C#-0~~~~~~~-0~~~-0-0----------0~~~-0-0-------------0~~~-0-0-------------|
G#-0~~~~~~~-0~~~-0-0----------0~~~-0-0-------------0~~~-0-0-------------|
C#-0~~~~~~~-0~~~-0-0----8-8-8-0~~~-0-0----10-10-10-0~~~-0-0----12-12-12-|

Guitar 1 continued
D#----------------------|
A#----------------------|
F#----------------------|
C#-0~~~-0-0-------------|
G#-0~~~-0-0-------------|
C#-0~~~-0-0----14-15-15-|

Guitar 2
D#--------------------------------------- |
A#--------------------------------------- |
F#-----------10~-----------10~-------10~- |
C#-12~-12h14-----12~-12h14-----12h14----- |
G#--------------------------------------- |
C#--------------------------------------- |
                                          |-- x4
Guitar 2 continued                        |
D#----------------------------------------|
A#-----13----13------------13----13-------|
F#-----------------10~-----------------10~|
C#-12~----12----12-----12~----12----12----|
G#----------------------------------------|
C#----------------------------------------|

Interlude 2

Guitar 1
D#-------------------------------------------------------------------------|
A#-------------------------------------------------------------------------|
F#-10-10-10-10-10-10-10-10-12-12-12-12-12-12-12-12-14-14-14-14-14-14-14-14-|
C#-x--x--x--x--x--x--x--x--x--x--x--x--x--x--x--x--x--x--x--x--x--x--x--x--|
G#-8--8--8--8--8--8--8--8--10-10-10-10-10-10-10-10-12-12-12-12-12-12-12-12-|
C#-------------------------------------------------------------------------|

Guitar 1 continued
D#-------------------------|
A#-------------------------|
F#-15-15-15-15-17-17-19-19-|
C#-x--x--x--x--x--x--x--x--|
G#-13-13-13-13-15-15-17-17-|
C#-------------------------|

Guitar 1
D#-------------------------------------------------------------------------|
A#-------------------------------------------------------------------------|
F#-10-10-10-10-12-12-12-12-14-14-14-14-15-15-15-15-17-17-17-17-19-19-19-19-|
C#-x--x--x--x--x--x--x--x--x--x--x--x--x--x--x--x--x--x--x--x--x--x--x--x--|
G#-8--8--8--8--10-10-10-10-12-12-12-12-13-13-13-13-15-15-15-15-17-17-17-17-|
C#-------------------------------------------------------------------------|

Guitar 1 continued
D#------------------------------------|
A#------------------------------------|
F#-21-21-21-21-22-22-22-22------------|
C#-x--x--x--x--x--x--x--x-------------|
G#-19-19-19-19-20-20-20-20------------|
C#------------------------------------|

Guitar 2
D#-13/17\13-----------------------------------|
A#----------------------------------15h18p17--|
F#----------15~-12~-----------15h17-----------|
C#------------------14~-14h17-----------------| x8
G#--------------------------------------------|
C#--------------------------------------------|

Bridge x2

Guitar 1
D#-------------------------------------------------------------------------|
A#-------------------------------------------------------------------------|
F#-------------------------------------------------------------------------|
C#-8-8-8-8-8-8-8-8-7-7-7-7-8-8-10-10-0-0-------------0-0------------0-0----|
G#-8-8-8-8-8-8-8-8-7-7-7-7-8-8-10-10-0-0-------------0-0------------0-0----|
C#-8-8-8-8-8-8-8-8-7-7-7-7-8-8-10-10-0-0-------------0-0------------0-0----|

Guitar 1 continued
D#--------------------------------|
A#--------------------------------|
F#--------------------------------|
C#-0-0---------0-0---------0-0----|
G#-0-0---------0-0---------0-0----|
C#-0-0---------0-0---------0-0----|

Guitar 2
D#--------------------------------------------------------------------------|
A#--------------------------------------------------------------------------|
F#------------------------------------------10-10-10-10-----9-9-9-9-9-9-9-9-|
C#-8-8-8-8-8-8-8-8-7-7-7-7-8--8--10-10--0-0-------------0-0-----------------|
G#-8-8-8-8-8-8-8-8-8-8-8-8-10-10-12-12--0-0-------------0-0-----------------|
C#-8-8-8-8-8-8-8-8-7-7-7-7-8--8--10-10--0-0-------------0-0-----------------|

Guitar 2
D#---------------------------------|
A#---------------------------------|
F#-----7-7-7-7-----5-5-5-5-5-5-5-5-|
C#-0-0---------0-0-----------------|
G#-0-0---------0-0-----------------|
C#-0-0---------0-0-----------------|

Breakdown 4

Guitar 1
D#------------------------------------------------------|
A#------------------------------------------------------|
F#------------------------------------------------------|
C#-8~-7~---8~-7~----0-0--0-0-8~-7~---8~-7~----0-0--0-0--| x4
G#-8~-7~---8~-7~----0-0--0-0-8~-7~---8~-7~----0-0--0-0--|
C#-8~-7~---8~-7~----0-0--0-0-8~-7~---8~-7~----0-0--0-0--|
Pm                  . .  . .                  . .  . .

Guitar 2
D#--------------------------|
A#--------------------------|
F#--------------------------|
C#8~-7~---8~-7~----0-0--0-0-|
G#8~-7~---8~-7~----0-0--0-0-|
C#8~-7~---8~-7~----0-0--0-0-|
Pm                 . .  . .

Guitar 2 continued
D#------------------------------------------------------------------|
A#------------------------------------------------------------------|
F#-----------------2-------------------------------2----------------|
C#-------------3h5---0-------------------------3h5---0--------------| x2
G#---------5p3---------5p3-----------------5p3---------5p3----------|
C#-0h3h5h7-----------------7p5-7p0-0h3h5h7-----------------7p5-7p0--|

Outro

Guitar 1
D#---------------------------------------------------|
A#---------------------------------------------------|
F#---------------------------------------------------|
C#-0-0--0-0---0-0--0-0------0-0--0-0---0-0--0-0------|
G#-0-0--0-0---0-0--0-0------0-0--0-0---0-0--0-0------|
C#-0-0--0-0---0-0--0-0------0-0--0-0---0-0--0-0------|
Pm . .  . .   . .  . .      . .  . .   . .  . .

Guitar 2 continued
D#------------------------------------------------------------------|
A#------------------------------------------------------------------|
F#-----------------2-------------------------------2----------------|
C#-------------3h5---0-------------------------3h5---0--------------| x2
G#---------5p3---------5p3-----------------5p3---------5p3----------|
C#-0h3h5h7-----------------7p5-7p0-0h3h5h7-----------------7p5-7p0--|

Tab Legend
h  -  hammer-on
p  -  pull-off
/  -  slide up
\  -  slide down
ps/-  pickslide up
ps\-  pickslide down
~  -  let ring
pm.-  palm mute
b  -  bend
r  -  return from bend
*  -  harmonic
x  -  dead note

Well there you go! It is a pretty cool song, but it isn't the best to me. I don't find
I the Chorus unlike the other songs. Please Email me about the tab, and if there is
wrong with it just tell me. Oh yeah and one last thing... ROCK OUT!!!!
============================================================================
============================================================================

3.
----------------------------------------------------------------------------
                             Akissforjersey
                                Believe
----------------------------------------------------------------------------

Hello, I just to start off by saying I've had trouble with this tab. It is hard because
has a bunch of parts, like most of Akissforjersey's songs, but this one is switching
guitar to guitar. Once I hear something there has to be something different I have to do 
it because, well, that's how the guitar parts go. I try to get it as accurate as
and make it easier for you! Enjoy!

Guitar 1 Rhythmic (C# G# C# F# A# D#)
Guitar 2 Lead     (C# G# C# F# A# D#)

Intro

Guitar 1 & 2
D#-------------------|
A#-------------------|
F#-------------------|
C#-0-0-8~-0-8~-0~~~~-|
G#-0-0-8~-0-8~-0~~~~-|
C#-0-0-8~-0-8~-0~~~~-|

Verse 1 (They do actually switch at this part.)

Guitar 1
D#-------------------------------------------------------|
A#-------------------------------------------------------|
F#-9-9-9-9-9-9-9-9-9-9-9-9-10-10-10-10-10-10-10-10-10-10-|
C#-0-0-x-x-x-x-x-x-0-0-x-x-0--0--0--0--0--0--x--x--x--x--|
G#-0-0-7-7-7-7-7-7-0-0-7-7-0--0--0--0--0--0--8--8--8--8--|
C#-0-0-------------0-0-----0--0--0--0--0--0--------------|

Guitar 1 continued
D#-------------------------|
A#-------------------------|
F#-14-14-14-14-------------|
C#-x--x--x--x--0-0-8~-0-8~-|
G#-12-12-12-12-0-0-8~-0-8~-|
C#-------------0-0-8~-0-8~-|

Guitar 2
D#-----------------------------------------------------------|
A#-----------------13h15-------------13h15-------------13h15-|
F#-12h14--------------------14----------------14-------------|
C#-------15p14-10--------12----12-12-------12----12-12-------|
G#-----------------------------------------------------------|
C#-----------------------------------------------------------|

Guitar 2 continued
D#-15-15-15-15-18-18-18-18-18-18\8-|
A#---------------------------------|
F#---------------------------------|
C#---------------------------------|
G#---------------------------------|
C#---------------------------------|

Guitar 1
D#--------------------------------------------------------------------|
A#--------------------------13h15-------------13h15-------------13h15-|
F#----------12h14--------------------14----------------14-------------|
C#-0-0-0-0--------15p14-10--------12----12-12-------12----12-12-------|
G#-0-0-0-0------------------------------------------------------------|
C#-0-0-0-0------------------------------------------------------------|

Guitar 1 continued
D#-15-15-15-15-18-18-18-18-18-18\8-|
A#---------------------------------|
F#---------------------------------|
C#---------------------------------|
G#---------------------------------|
C#---------------------------------|

Guitar 2
D#------------------------------------------------------------------|
A#------------------------------------------------------------------|
F#9-9-9-9-9-9-9-9-9-9-9-9-9-9-9-9-9-9-10-10-10-10-10-10-10-10-10-10-|
C#0-0-0-0-x-x-0-0-x-x-x-x-x-x-0-0-x-x-0--0--0--0--0--0--x--x--x--x--|
G#0-0-0-0-7-7-0-0-7-7-7-7-7-7-0-0-7-7-0--0--0--0--0--0--8--8--8--8--|
C#0-0-0-0-----0-0-------------0-0-----0--0--0--0--0--0--------------|

Guitar 2 continued
D#-------------------------|
A#-------------------------|
F#-14-14-14-14-------------|
C#-x--x--x--x--0-0-8~-0-8~-|
G#-12-12-12-12-0-0-8~-0-8~-|
C#-------------0-0-8~-0-8~-|

Pre Chorus 1

Guitar 1 & 2
D#----------------------------------------------------|
A#----------------------------------------------------|
F#----------------------------------------------------|
C#-8-8-8-8-8-8--8--8-8-8-8----8-8-8-8-8-8--8--8-8-8-8-|
G#-8-8-8-8-8-8--8--8-8-8-8----8-8-8-8-8-8--8--8-8-8-8-|
C#-8-8-8-8-8-8--8--8-8-8-8----8-8-8-8-8-8--8--8-8-8-8-|

Guitar 1 & 2
D#----------------------------------------------------|
A#----------------------------------------------------|
F#----------------------------------------------------|
C#-0-0-0-0-0-0--0--0-0-0-0----0-0-0-0-0-0--0--0-0-0-0-|
G#-0-0-0-0-0-0--0--0-0-0-0----0-0-0-0-0-0--0--0-0-0-0-|
C#-0-0-0-0-0-0--0--0-0-0-0----0-0-0-0-0-0--0--0-0-0-0-|


Guitar 1
D#----------------------------------------------------|
A#----------------------------------------------------|
F#----------------------------------------------------|
C#-8-8-8-8-8-8--8--8-8-8-8----8-8-8-8-8-8--8--8-8-8-8-|
G#-8-8-8-8-8-8--8--8-8-8-8----8-8-8-8-8-8--8--8-8-8-8-|
C#-8-8-8-8-8-8--8--8-8-8-8----8-8-8-8-8-8--8--8-8-8-8-|

Guitar 2
D#-----------------------------------------------------------------|
A#-------------------------7-8-9\6-------------------------7-8-9\6-|
F#-9p7-9p0-5h7-0-9-0-9-5h7---------9p7-9p0-5h7-0-9-0-9-5h7---------|
C#-----------------------------------------------------------------|
G#-----------------------------------------------------------------|
C#-----------------------------------------------------------------|

Guitar 1
D#----------------------------------------------------|
A#----------------------------------------------------|
F#----------------------------------------------------|
C#-0-0-0-0-0-0--0--0-0-0-0----0-0-0-0-0-0--0--0-0-0-0-|
G#-0-0-0-0-0-0--0--0-0-0-0----0-0-0-0-0-0--0--0-0-0-0-|
C#-0-0-0-0-0-0--0--0-0-0-0----0-0-0-0-0-0--0--0-0-0-0-|

Guitar 2
D#----------------------------------------|
A#----------------------------------------|
F#-10-10-10-10-10-10-10-7-7-7-7-7-7-7-7-7-|
C#-x--x--x--x--x--x--x--x-x-x-x-x-x-x-x-x-|
G#-8--8--8--8--8--8--8--5-5-5-5-5-5-5-5-5-|
C#----------------------------------------|

Guitar 2
D#----------------------------------------|
A#----------------------------------------|
F#-10-10-10-10-10-10-10-5-5-5-5-5-5-5-5-5-|
C#-x--x--x--x--x--x--x--x-x-x-x-x-x-x-x-x-|
G#-8--8--8--8--8--8--8--3-3-3-3-3-3-3-3-3-|
C#----------------------------------------|

Guitar 1
D#----------------------------------------------------|
A#----------------------------------------------------|
F#----------------------------------------------------|
C#-0-0-0-0-0-0--0--0-0-0-0----0-0-0-0-0-0--0--0-0-0-0-|
G#-0-0-0-0-0-0--0--0-0-0-0----0-0-0-0-0-0--0--0-0-0-0-|
C#-0-0-0-0-0-0--0--0-0-0-0----0-0-0-0-0-0--0--0-0-0-0-|

Chorus

Guitar 1 & 2
D#------------------------------------------------------|
A#------------------------------------------------------|
F#------------------------------------------------------|
C#-8-8-8-8-8-8-8-8-5-5-5-5-5-5-5-5-0~~~-0-0-0-0~~~-0~~~-|
G#-8-8-8-8-8-8-8-8-5-5-5-5-5-5-5-5-0~~~-0-0-0-0~~~-0~~~-|
C#-8-8-8-8-8-8-8-8-5-5-5-5-5-5-5-5-0~~~-0-0-0-0~~~-0~~~-|
Pm                                      . . .

Guitar 1 & 2
D#-------------------------------------------------------|
A#-------------------------------------------------------|
F#-14-14-14-14-14-14-12-12-12-12-17-17-17-17-17-17-17-17-|
C#-x--x--x--x--x--x--x--x--x--x--x--x--x--x--x--x--x--x--|
G#-12-12-12-12-12-12-10-10-10-10-15-15-15-15-15-15-15-15-|
C#-------------------------------------------------------|

Guitar 1 & 2
D#------------------------------------------------------|
A#------------------------------------------------------|
F#------------------------------------------------------|
C#-8-8-8-8-8-8-8-8-5-5-5-5-5-5-5-5-0~~~-0-0-0-0~~~-0~~~-|
G#-8-8-8-8-8-8-8-8-5-5-5-5-5-5-5-5-0~~~-0-0-0-0~~~-0~~~-|
C#-8-8-8-8-8-8-8-8-5-5-5-5-5-5-5-5-0~~~-0-0-0-0~~~-0~~~-|

Guitar 1 & 2
D#---------------------------------|
A#---------------------------------|
F#-5-5-5-5-5-5-5-5-5-5-5-5-5-5-5-5-|
C#-x-x-x-x-x-x-x-x-x-x-x-x-x-x-x-x-|
G#-3-3-3-3-3-3-3-3-3-3-3-3-3-3-3-3-|
C#---------------------------------|

Breakdown 1

Guitar 1
D#------------------------------------------------------------------------|
A#------------------------------------------------------------------------|
F#------------------------------------------------------------------------|
C#-5-5-5-5-5-5-5-8-7-7-7-7-7-7-7-10-8-8-8-8-8-8-8-12-10-10-10-10-10-10-10-|
G#-5-5-5-5-5-5-5-8-7-7-7-7-7-7-7-10-8-8-8-8-8-8-8-12-10-10-10-10-10-10-10-|
C#-5-5-5-5-5-5-5-8-7-7-7-7-7-7-7-10-8-8-8-8-8-8-8-12-10-10-10-10-10-10-10-|

Guitar 2 (This might be my imagination, but I'll put it anyway.)
D#-------------------------------------------------|
A#-------------------------------------------------|
F#-14-14-14-14-14-14-14-14-17-17-17-17-17-17-17-17-|
C#-x--x--x--x--x--x--x--x--x--x--x--x--x--x--x--x--|
G#-12-12-12-12-12-12-12-12-15-15-15-15-15-15-15-15-|
C#-------------------------------------------------|

Guitar 2
D#-------------------------------------------------|
A#-------------------------------------------------|
F#-19-19-19-19-19-19-19-19-21-21-21-21-21-21-21-21-|
C#-x--x--x--x--x--x--x--x--x--x--x--x--x--x--x--x--|
G#-17-17-17-17-17-17-17-17-19-19-19-19-19-19-19-19-|
C#-------------------------------------------------|

Guitar 1
D#---------------------------------------------------------------------|
A#---------------------------------------------------------------------|
F#---------------------------------------------------------------------|
C#---------------------------------------------------------------------|
G#---------5----------------5----------------7----------------7--------|
C#-5h7-5h7---h7-5h7-5h7-5h7---h7-5h7-7h8-7h8---h8-7h8-7h8-7h8---h8-7h8-|

Guitar 1
D#-------------------------------------------|
A#-------------------------------------------|
F#-------------------------------------------|
C#-------------------------------------------|
G#-----------8--------------------8----------|
C#-8h10-8h10---h10-8h10-8h10-8h10---h10-8h10-|

Guitar 1
D#---------------------------------------------------|
A#---------------------------------------------------|
F#---------------------------------------------------|
C#---------------------------------------------------|
G#-------------10-----------------------10-----------|
C#-10h12-10h12----h12-10h12-10h12-10h12----h12-10h12-|

Guitar 2
D#-------------------------------------------------|
A#-------------------------------------------------|
F#-14-14-14-14-14-14-14-14-17-17-17-17-17-17-17-17-|
C#-x--x--x--x--x--x--x--x--x--x--x--x--x--x--x--x--|
G#-12-12-12-12-12-12-12-12-15-15-15-15-15-15-15-15-|
C#-------------------------------------------------|

Guitar 2
D#-------------------------------------------------|
A#-------------------------------------------------|
F#-19-19-19-19-19-19-19-19-21-21-21-21-21-21-21-21-|
C#-x--x--x--x--x--x--x--x--x--x--x--x--x--x--x--x--|
G#-17-17-17-17-17-17-17-17-19-19-19-19-19-19-19-19-|
C#-------------------------------------------------|

Breakdown 2

Guitar 1
D#--------------------------------------------------------|
A#--------------------------------------------------------|
F#--------------------------------------------------------|
C#--------------0-0-0-0~---0~-0-0-0-0~---0~-0-0-0-0~---0~-|
G#--------------0-0-0-0~---0~-0-0-0-0~---0~-0-0-0-0~---0~-|
C#-12~/0--------0-0-0-0~---0~-0-0-0-0~---0~-0-0-0-0~---0~-|
Pm              . . .         . . .         . . .

Guitar 1 continued
D#----------------------|
A#----------------------|
F#----------------------|
C#-0-0-0-0~-0-0-0-0~-0~-|
G#-0-0-0-0~-0-0-0-0~-0~-|
C#-0-0-0-0~-0-0-0-0~-0~-|
Pm . . .    . . .

Guitar 2
D#---------------------------------------------------|
A#-----------------13h15-------------13h15-----------|
F#-12h14--------------------14----------------14-----|
C#-------15p14-10--------12----12-12-------12----12--| x6
G#---------------------------------------------------|
C#---------------------------------------------------|

Pre Chorus 2

Guitar 1
D#-----------------------------------------------------------------------|
A#-----------------------------------------------------------------------|
F#-10~~~-12~-7~~~-9~-5~~~~-5~-5~~~~-10~~~-12~-7~~~-9~-5~~~-5~-5~---------|
C#-10~~~-12~-7~~~-9~-5~~~~-5~-5~~~~-10~~~-12~-7~~~-9~-5~~~-5~-5~-2-2-2-2-|
G#-8~~~~-10~-5~~~-7~-3~~~~-3~-3~~~~-8~~~~-10~-5~~~-7~-3~~~-3~-3~-2-2-2-2-|
C#---------------------------------------------------------------2-2-2-2-|
Pm                                                               . . . .

Guitar 2
D#---------------------------------------- |
A#---------------------------------------- |
F#-14~-10~-------10~-9~~------------------ |
C#---------12~~~----------------10~-12-12~ |
G#-----------------------10~-12----------- |
C#---------------------------------------- |
                                           |
Guitar 2                                   |-- x2
D#------------------------------------------|
A#------------------------------------------|
F#-14~-10~-------9/10~-9~-------------------|
C#---------12~~~----------10~---------------|
G#----------------------------14~-12~-14~~~-|
C#------------------------------------------|

Chorus

Guitar 1 & 2
D#------------------------------------------------------|
A#------------------------------------------------------|
F#------------------------------------------------------|
C#-8-8-8-8-8-8-8-8-5-5-5-5-5-5-5-5-0~~~-0-0-0-0~~~-0~~~-|
G#-8-8-8-8-8-8-8-8-5-5-5-5-5-5-5-5-0~~~-0-0-0-0~~~-0~~~-|
C#-8-8-8-8-8-8-8-8-5-5-5-5-5-5-5-5-0~~~-0-0-0-0~~~-0~~~-|
Pm                                      . . .

Guitar 1 & 2
D#-------------------------------------------------------|
A#-------------------------------------------------------|
F#-14-14-14-14-14-14-12-12-12-12-17-17-17-17-17-17-17-17-|
C#-x--x--x--x--x--x--x--x--x--x--x--x--x--x--x--x--x--x--|
G#-12-12-12-12-12-12-10-10-10-10-15-15-15-15-15-15-15-15-|
C#-------------------------------------------------------|

Guitar 1 & 2
D#------------------------------------------------------|
A#------------------------------------------------------|
F#------------------------------------------------------|
C#-8-8-8-8-8-8-8-8-5-5-5-5-5-5-5-5-0~~~-0-0-0-0~~~-0~~~-|
G#-8-8-8-8-8-8-8-8-5-5-5-5-5-5-5-5-0~~~-0-0-0-0~~~-0~~~-|
C#-8-8-8-8-8-8-8-8-5-5-5-5-5-5-5-5-0~~~-0-0-0-0~~~-0~~~-|

Guitar 1 & 2
D#---------------------------------|
A#---------------------------------|
F#-5-5-5-5-5-5-5-5-5-5-5-5-5-5-5-5-|
C#-x-x-x-x-x-x-x-x-x-x-x-x-x-x-x-x-|
G#-3-3-3-3-3-3-3-3-3-3-3-3-3-3-3-3-|
C#---------------------------------|

Breakdown 1

Guitar 1
D#------------------------------------------------------------------------|
A#------------------------------------------------------------------------|
F#------------------------------------------------------------------------|
C#-5-5-5-5-5-5-5-8-7-7-7-7-7-7-7-10-8-8-8-8-8-8-8-12-10-10-10-10-10-10-10-|
G#-5-5-5-5-5-5-5-8-7-7-7-7-7-7-7-10-8-8-8-8-8-8-8-12-10-10-10-10-10-10-10-|
C#-5-5-5-5-5-5-5-8-7-7-7-7-7-7-7-10-8-8-8-8-8-8-8-12-10-10-10-10-10-10-10-|

Guitar 2 (This might be my imagination, but I'll put it anyway.)
D#-------------------------------------------------|
A#-------------------------------------------------|
F#-14-14-14-14-14-14-14-14-17-17-17-17-17-17-17-17-|
C#-x--x--x--x--x--x--x--x--x--x--x--x--x--x--x--x--|
G#-12-12-12-12-12-12-12-12-15-15-15-15-15-15-15-15-|
C#-------------------------------------------------|

Guitar 2
D#-------------------------------------------------|
A#-------------------------------------------------|
F#-19-19-19-19-19-19-19-19-21-21-21-21-21-21-21-21-|
C#-x--x--x--x--x--x--x--x--x--x--x--x--x--x--x--x--|
G#-17-17-17-17-17-17-17-17-19-19-19-19-19-19-19-19-|
C#-------------------------------------------------|

Guitar 1
D#---------------------------------------------------------------------|
A#---------------------------------------------------------------------|
F#---------------------------------------------------------------------|
C#---------------------------------------------------------------------|
G#---------5----------------5----------------7----------------7--------|
C#-5h7-5h7---h7-5h7-5h7-5h7---h7-5h7-7h8-7h8---h8-7h8-7h8-7h8---h8-7h8-|

Guitar 1
D#-------------------------------------------|
A#-------------------------------------------|
F#-------------------------------------------|
C#-------------------------------------------|
G#-----------8--------------------8----------|
C#-8h10-8h10---h10-8h10-8h10-8h10---h10-8h10-|

Guitar 1
D#---------------------------------------------------|
A#---------------------------------------------------|
F#---------------------------------------------------|
C#---------------------------------------------------|
G#-------------10-----------------------10-----------|
C#-10h12-10h12----h12-10h12-10h12-10h12----h12-10h12-|

Guitar 2
D#-------------------------------------------------|
A#-------------------------------------------------|
F#-14-14-14-14-14-14-14-14-17-17-17-17-17-17-17-17-|
C#-x--x--x--x--x--x--x--x--x--x--x--x--x--x--x--x--|
G#-12-12-12-12-12-12-12-12-15-15-15-15-15-15-15-15-|
C#-------------------------------------------------|

Guitar 2
D#-------------------------------------------------|
A#-------------------------------------------------|
F#-19-19-19-19-19-19-19-19-21-21-21-21-21-21-21-21-|
C#-x--x--x--x--x--x--x--x--x--x--x--x--x--x--x--x--|
G#-17-17-17-17-17-17-17-17-19-19-19-19-19-19-19-19-|
C#-------------------------------------------------|

Bridge

Guitar 1
D#-----------------------------------------|
A#-----------------------------------------|
F#-----------------------------------------|
C#------------------------5~-5-5-5-5-5-5-5-|
G#------------------------5~-5-5-5-5-5-5-5-|
C#------------------------5~-5-5-5-5-5-5-5-|
Pm                           . . . . . . .

Guitar 2 x2 (not 100% sure about this part)
D#-----------------------------------------5-5-5-5-5-5-5-5-----------------|
A#-6-6-6-6-6-6-6-6-------------------------x-x-x-x-x-x-x-x-5-5-5-5-5-5-5-5-|
F#-x-x-x-x-x-x-x-x-12-12-12-12-12-12-12-12-x-x-x-x-x-x-x-x-x-x-x-x-x-x-x-x-|
C#-7-7-7-7-7-7-7-7-10-10-10-10-10-10-10-10-5-5-5-5-5-5-5-5-7-7-7-7-7-7-7-7-|
G#-5-5-5-5-5-5-5-5-8--8--8--8--8--8--8--8--3-3-3-3-3-3-3-3-5-5-5-5-5-5-5-5-|
C#-------------------------------------------------------------------------|

Outro x8

Guitar 1
D#-------------------------------------------------------------------------|
A#-------------------------------------------------------------------------|
F#-------------------------------------------------------------------------|
C#-8-8-8-8-8-8-8-8-8-8-8-8-8-8-8-8-0-0-0-0-0-0-0-0-10-10-10-10-10-10-10-10-|
G#-8-8-8-8-8-8-8-8-8-8-8-8-8-8-8-8-0-0-0-0-0-0-0-0-10-10-10-10-10-10-10-10-|
C#-8-8-8-8-8-8-8-8-8-8-8-8-8-8-8-8-0-0-0-0-0-0-0-0-10-10-10-10-10-10-10-10-|

Guitar 2
D#------------------------------------------------------------|
A#------------------------------------------------------------|
F#-9-------9~---------------------------9-----------10-9~-----|
C#------8~----10~-------10-12-12~~~-10~------10-12~-------10~-|
G#---10-----------10-12-------------------10------------------|
C#------------------------------------------------------------|

Guitar 2 continued
D#----------------------|
A#----------------------|
F#----------------------|
C#-----8-10-12-12~~-12~-|
G#-10~------------------|
C#----------------------|
============================================================================
============================================================================

4.
----------------------------------------------------------------------------
                             Akissforjersey
                                The Fire
----------------------------------------------------------------------------

Hello, ok... I don't have much to say as you can see so I will just say that The Fire
Akissforjersey's easiest song, but it isn't that hard that you can't learn it, (Easy to
hard to remember.) Enjoy!

Guitar 1 Rhythmic (C# G# C# F# A# D#)
Guitar 2 Lead     (C# G# C# F# A# D#)

Intro (A shallow sound, kind of mysterious; reverb)

Guitar 1
D#------------------------------------------------------------------|
A#------------------------------------------------------------------|
F#---7-7-7-7-7-7-7-7-7-7-7-7-7-7-7---5-5-5-5-5-5-5-5-5-5-5-5-5-5-5--|
C#---7-7-7-7-7-7-7-7-7-7-7-7-7-7-7---5-5-5-5-5-5-5-5-5-5-5-5-5-5-5--| x2
G#-5-5-5-5-5-5-5-5-5-5-5-5-5-5-5-5-3-3-3-3-3-3-3-3-3-3-3-3-3-3-3-3--|
C#------------------------------------------------------------------|

Guitar 2
D#-------------------------------------------                   |
A#-------------------------------------------                   |
F#-------11-11-----11-11-----11-11-----11-11-                   |
C#---7-7-------7-7-------7-7-------7-7-------                   |
G#-5-----------------------------------------                   |
C#-------------------------------------------                   |
                                                                |
Guitar 2                                                        |
D#------------------------------------------                    |--x2
A#-----8---10---10---11-11-11-11-10-10-10-10                    |
F#------------------------------------------                    |
C#-7-7---7----7----7------------------------                    |
G#------------------------------------------                    |
C#------------------------------------------                    |
                                                                |
Guitar 2                                                        |
D#---------------------------------------------------------------|
A#---------------------------------------------------------------|
F#-----7--7-------------5--5-------------2~---2h3---3---3---2----|
C#-3--------3----------------3-----------------------------------|
G#---0--------0-1-0-1-0--------0-1-0-1-0----5-----0---5---5---5p0|
C#---------------------------------------------------------------|

Guitar 1
D#----------------------------------------|
A#----------------------------------------|
F#---7-7-7-7-7-7-7-7-7-7-7-7-7-7-7--7~~~~-|
C#---7-7-7-7-7-7-7-7-7-7-7-7-7-7-7--7~~~~-|
G#-5-5-5-5-5-5-5-5-5-5-5-5-5-5-5-5--5~~~~-|
C#----------------------------------------|

Guitar 2
D#------------------------------------------------------------------------|
A#------------------------------------------------------------------------|
F#------------------------------------------------------------------7~~~~-|
C#-----7-7-----7-7-----7-7-----7-7-----7-7-----7-7-----7-7-----7-7--7~~~~-|
G#-5-5-----5-5-----5-5-----5-5-----5-5-----5-5-----5-5-----5-5------5~~~~-|
C#------------------------------------------------------------------------|

Chorus

Guitar 1
D#----------------------------------------------------------------|
A#----------------------------------------------------------------|
F#--------------5~~~~~~~~-5~-----3-3-3-3-3-3-3-3-5-5-5-5-5-5-5-5--|
C#-0~~~~~~~~-0~-5~~~~~~~~-5~-x-x-3-3-3-3-3-3-3-3-5-5-5-5-5-5-5-5--| x2
G#-0~~~~~~~~-0~-3~~~~~~~~-3~-x-x-1-1-1-1-1-1-1-1-3-3-3-3-3-3-3-3--|
C#-0~~~~~~~~-0~--------------x-x----------------------------------|

Guitar 2
D#-13~~------------10-12------------------------                |
A#------10-11-13~~-------13~~-11-13~~-11-10-8h10                |
F#----------------------------------------------                |
C#----------------------------------------------                |
G#----------------------------------------------                |
C#----------------------------------------------                |
                                                                | x2
Guitar 2                                                        |
D#---------------------------8h10~---------------------------8h10|
A#-8h10-----------------8h10-------8h10-----------------8h10-----|
F#------7h9-----5h7-7h9-----------------7h9-----5h7-7h9----------|
C#----------5h7-----------------------------5h7------------------|
G#---------------------------------------------------------------|
C#---------------------------------------------------------------|

Verse

Guitar 1
D#-11~~~~~~~~~~~~~--------------------------------------------------|
A#------------------------------------------------------------------|
F#-----------------7-7-7-7-7-7-7-7---5-5-5-5-5-5-5-5-5-5-5-5-5-5-5--|
C#-----------------7-7-7-7-7-7-7-7---5-5-5-5-5-5-5-5-5-5-5-5-5-5-5--| x2
G#-----------------5-5-5-5-5-5-5-5-3-3-3-3-3-3-3-3-3-3-3-3-3-3-3-3--|
C#------------------------------------------------------------------|

Guitar 2
D#-------------------------------------------                   |
A#-------------------------------------------                   |
F#-------11-11-----11-11-----11-11-----11-11-                   |
C#---7-7-------7-7-------7-7-------7-7-------                   |
G#-5-----------------------------------------                   |
C#-------------------------------------------                   |
                                                                |
Guitar 2                                                        |
D#------------------------------------------                    |--x2
A#-----8---10---10---11-11-11-11-10-10-10-10                    |
F#------------------------------------------                    |
C#-7-7---7----7----7------------------------                    |
G#------------------------------------------                    |
C#------------------------------------------                    |
                                                                |
Guitar 2                                                        |
D#---------------------------------------------------------------|
A#---------------------------------------------------------------|
F#-----7--7-------------5--5-------------2~---2h3---3---3---2----|
C#-3--------3----------------3-----------------------------------|
G#---0--------0-1-0-1-0--------0-1-0-1-0----5-----0---5---5---5p0|
C#---------------------------------------------------------------|

Guitar 1
D#----------------------------------------|
A#----------------------------------------|
F#---7-7-7-7-7-7-7-7-7-7-7-7-7-7-7--7~~~~-|
C#---7-7-7-7-7-7-7-7-7-7-7-7-7-7-7--7~~~~-|
G#-5-5-5-5-5-5-5-5-5-5-5-5-5-5-5-5--5~~~~-|
C#----------------------------------------|

Guitar 2
D#------------------------------------------------------------------------|
A#------------------------------------------------------------------------|
F#------------------------------------------------------------------7~~~~-|
C#-----7-7-----7-7-----7-7-----7-7-----7-7-----7-7-----7-7-----7-7--7~~~~-|
G#-5-5-----5-5-----5-5-----5-5-----5-5-----5-5-----5-5-----5-5------5~~~~-|
C#------------------------------------------------------------------------|

Chorus x4

Guitar 1
D#----------------------------------------------------------------|
A#----------------------------------------------------------------|
F#--------------5~~~~~~~~-5~-----3-3-3-3-3-3-3-3-5-5-5-5-5-5-5-5--|
C#-0~~~~~~~~-0~-5~~~~~~~~-5~-x-x-3-3-3-3-3-3-3-3-5-5-5-5-5-5-5-5--| x2
G#-0~~~~~~~~-0~-3~~~~~~~~-3~-x-x-1-1-1-1-1-1-1-1-3-3-3-3-3-3-3-3--|
C#-0~~~~~~~~-0~--------------x-x----------------------------------|

Guitar 2
D#-13~~------------10-12------------------------                |
A#------10-11-13~~-------13~~-11-13~~-11-10-8h10                |
F#----------------------------------------------                |
C#----------------------------------------------                |
G#----------------------------------------------                |
C#----------------------------------------------                |
                                                                | x2
Guitar 2                                                        |
D#---------------------------8h10~---------------------------8h10|
A#-8h10-----------------8h10-------8h10-----------------8h10-----|
F#------7h9-----5h7-7h9-----------------7h9-----5h7-7h9----------|
C#----------5h7-----------------------------5h7------------------|
G#---------------------------------------------------------------|
C#---------------------------------------------------------------|

Outro

Guitar 1
D#---------------------------------------|
A#---------------------------------------|
F#---------------------------------------|
C#-0~~~~~~~~~~~~~~~~~~~~~~~~~~~~~~~~~~~~~|
G#-0~~~~~~~~~~~~~~~~~~~~~~~~~~~~~~~~~~~~~|
C#-0~~~~~~~~~~~~~~~~~~~~~~~~~~~~~~~~~~~~~|
=======================================================================================

5.
----------------------------------------------------------------------------
                             Akissforjersey
                               Parallels
----------------------------------------------------------------------------

Hello, I know I always say something before making a tab, if you view my other tabs, but
don't really have much to say with this song. It is ok to me, be it isn't the best. I
the guitar part, and that actually makes it meaningful to me. Enjoy!

Guitar 1 Rhythmic (C# G# C# F# A# D#)
Guitar 2 Lead     (C# G# C# F# A# D#)

Intro

Guitar 1
D#-------------------------------------|
A#-------------------------------------|
F#-------------------------------------|
C#------------------1~/8~~~~~~~-10~-0~-|
G#------------------1~/8~~~~~~~-10~-0~-|
C#------------------1~/8~~~~~~~-10~-0~-|

Guitar 1
D#-----------------------------------------------------------------|
A#-----------------------------------------------------------------|
F#-----------------------------------------------------------------|
C#-0-0-0-0-0-0-0-0-0-0-0-0-0-0-0-0-8-8-8-8-8-8-8-8-7-7-7-7-5-5-3-3-|
G#-0-0-0-0-0-0-0-0-0-0-0-0-0-0-0-0-8-8-8-8-8-8-8-8-7-7-7-7-5-5-3-3-|
C#-0-0-0-0-0-0-0-0-0-0-0-0-0-0-0-0-8-8-8-8-8-8-8-8-7-7-7-7-5-5-3-3-|
Pm . . . . . . . . . . . . . . . . . . . . . . . . . . . . . . . .

Guitar 1
D#-----------------------------------------------------|
A#-----------------------------------------------------|
F#-----------------------------------------------------|
C#-0-0-0-0-0-0-0-0-0-0-0-0-0-0-0-0-7-7-7-7-10-10-10-10-|
G#-0-0-0-0-0-0-0-0-0-0-0-0-0-0-0-0-7-7-7-7-10-10-10-10-|
C#-0-0-0-0-0-0-0-0-0-0-0-0-0-0-0-0-7-7-7-7-10-10-10-10-|
Pm . . . . . . . . . . . . . . . .

Guitar 2
D#----------------------------------------|
A#----------------------------------------|
F#----------------------------------------|
C#---------14br-12-------14br-12----------| x6
G#-----------------12~~~---------12~~-10--|
C#----------------------------------------|

Verse 1

Guitar 1
D#------------------------------------------------ |
A#------------------------------------------------ |
F#------------------------------------------------ |
C#-8-8-8-8-8-8-8-8-5--5-5-7--7-7-10--10-10-3-3-3-3 |
G#-8-8-8-8-8-8-8-8-5--5-5-7--7-7-10--10-10-3-3-3-3 |
C#-8-8-8-8-8-8-8-8-5--5-5-7--7-7-10--10-10-3-3-3-3 |
					           |
Guitar 1					   |-- x2
D#-------------------------------------------------|
A#-------------------------------------------------|
F#-------------------------------------------------|
C#-8-8-8-8-8-8-8-8-0--0-0-5--5-5-7--7-7-10-10-10-10|
G#-8-8-8-8-8-8-8-8-0--0-0-5--5-5-7--7-7-10-10-10-10|
C#-8-8-8-8-8-8-8-8-0--0-0-5--5-5-7--7-7-10-10-10-10|

Guitar 2
D#----------------------------------------------------|
A#----10-12-13~----12-13----12-13----12-13------------|
F#-10-----------10-------10-------10-------10-10-10-10|
C#----------------------------------------------------|
G#----------------------------------------------------|
C#----------------------------------------------------|
                                                      |
Guitar 2                                              |---- x4
D#--------------------------------                    |
A#--------------------------------                    |
F#-9-9-9-9-9-9-9-9-9-9-9-9-9-9-9-9                    |
C#-x-x-x-x-x-x-x-x-x-x-x-x-x-x-x-x                    |
G#-7-7-7-7-7-7-7-7-7-7-7-7-7-7-7-7                    |
C#--------------------------------                    |

Verse 2

Guitar 1
D#-------------------------------------------------------------------------|
A#-------------------------------------------------------------------------|
F#-------------------------------------------------------------------------|
C#-8~~~~~-3~~~-7~-5~-8~~-8----3~~~-7~-5~-8~~-8----3~~~-7~-5~-8~~-8----3~~~-|
G#-8~~~~~-3~~~-7~-5~-8~~-8----3~~~-7~-5~-8~~-8----3~~~-7~-5~-8~~-8----3~~~-|
C#-8~~~~~-3~~~-7~-5~-8~~-8----3~~~-7~-5~-8~~-8----3~~~-7~-5~-8~~-8----3~~~-|

Guitar 2
D#------------------------------------------------   |
A#------------------------------------------------   |
F#------------------------------------------------   |
C#-15-15-15-14-14-14p12---------------------------   |
G#----------------------12-12-12-12-12-12-12-12-12   |
C#------------------------------------------------   |
                                                     |
Guitar 2                                             |--- x3
D#---------------------------------------------------|
A#---------------------------------------------------|
F#---------------------------------------------------|
C#-15-15-15-14-14-14p12------------------------------|
G#----------------------12-12-14h15-15-15-12-12-12-12|
C#---------------------------------------------------|

Guitar 1 continued
D#---------------------------------------------------------------|
A#---------------------------------------------------------------|
F#---------------------------------------------------------------|
C#-8-7-5-0~~~~~~~-8-7-5-0~~~~~~~-8-7-5-0~~~~~~~-8-7-5-0~~~~~~~~~-|
G#-8-7-5-0~~~~~~~-8-7-5-0~~~~~~~-8-7-5-0~~~~~~~-8-7-5-0~~~~~~~~~-|
C#-8-7-5-0~~~~~~~-8-7-5-0~~~~~~~-8-7-5-0~~~~~~~-8-7-5-0~~~
Добавлено: 20.07.2012
Другие материалы по этой песне:
  • Аккорды и текст

Страница создана 20.07.2012
http://primanota.ru/akissforjersey/victims-album-chords.htm
Привет, Гость.
Предлагаем пройти революционный курс по гитаре.
Подарок от PrimaNota.Ru, забирай!