PrimaNota.ru - самый крупный в мире бесплатный архив песенных текстов, аккордов, табулатур и нот


Akissforjersey - The Evidence - таба, видео

Регистрация Запомнить меня
Войти через:  Facebook Google Twitter Vk Yandex Mail.ru

Akissforjersey - The Evidence - таба, видео

Печатать
Просмотров: 88
Уроки эстрадного вокала в Санкт-Петербурге
----------------------------------------------------------------------------
                             Akissforjersey
                              The Evidence
----------------------------------------------------------------------------

Hello, this is also a song familiar to Devices, but I think of it as a mix between Oh,
City, and II. Reason being, because it starts off with a little drum solo, it has similar
riffs for the intro(s), and the Chorus has a sound like it also one of my favorite songs 
the album, going on 4 place, and has a cool piece of work for the ending of the
with the “We're all so blind now, we want it all.” It is awesome! Enjoy!

Username: dkm817 (same on X box live)
Email: guitardrums@rockfan.com

Guitar 1 Rhythmic (C# G# C# F# A# D#)
Guitar 2 Lead     (C# G# C# F# A# D#)


Intro 1 (Start off with a little drums solo)

Guitar 1
D#------------------------------------------------------------|
A#------------------------------------------------------------|
F#------------------------------------------------------------|
C#-12\0-8-10~-10~-10~-10-10-10-10-0~-12\0-8-10\5~-7~-6-0-0-0--| x2
G#-12\0-8-10~-10~-10~-10-10-10-10-0~-12\0-8-10\5~-7~-6-0-0-0--|
C#-12\0-8-10~-10~-10~-10-10-10-10-0~-12\0-8-10\5~-7~-6-0-0-0--|
Pm                                                     . . .

Guitar 2
D#--------------------------------------------------------------|
A#---------------------------------------------------------4~~--|
F#---------------------------------------------------------7~~--|
C#-12\0-8-10~-10~-10~-10-10-10-10-0~-12\0-8-10\5~-7~-6-0-0------| x2
G#-12\0-8-10~-10~-10~-10-10-10-10-0~-12\0-8-10\5~-7~-6-0-0------|
C#-12\0-8-10~-10~-10~-10-10-10-10-0~-12\0-8-10\5~-7~-6-0-0------|
Pm                                                     . .

Intro 2

Guitar 1
D#---------------------------------------------------------|
A#---------------------------------------------------------|
F#---------------------------------------------------------|
C#---------------------------------------------------------| x2
G#---------------------------------------------------------|
C#-5~-0~-1-0~-5~-0~~-1-0~-1-0~-5~-0~-1-0~------------------|

Guitar 1
D#-----------------------------------------------------------|
A#-----------------------------------------------------------|
F#-----------------------------------------------------------|
C#----------------------------------------0~-8-0---10--10----| x2
G#-----------------------------------------------6----6---6--|
C#-5~-0~-1-0~-5~-0~~-1-0~-1-0~-5~-0~-1-0~--------------------|

Guitar Battle (Or something like it.)

Guitar 1
D#-----------------------------------------------------------------|
A#-----------------------------------------------------------------|
F#-----------------------------------------------------------------|
C#-0-0--0-0-------------------------0-0--0-0-----------------------| x2
G#-0-0--0-0------5p3-----5----------0-0--0-0-----------------------|
C#-0-0--0-0--0h3-----5h6---6-5-3-0--0-0--0-0-----------------------|

Guitar 2
D#-------------------------------------------------------------------|
A#-------------------------------------------------------------------|
F#------------------------------------------------------2h5-3p0-0----|
C#-0-0--0-0-------------------------0-0--0-0--------3h5-----------0--| x2
G#-0-0--0-0-------------------------0-0--0-0----3h5------------------|
C#-0-0--0-0-------------------------0-0--0-0--0----------------------|

Verse 1

Guitar 1
D#-----------------------------------------------------------------|
A#-----------------------------------------------------------------|
F#-9~~-9-9-9-9-9-9--5~~-5-5-5-5-5-5--------------------------------|
C#-9~~-9-9-9-9-9-9--5~~-5-5-5-5-5-5--x-x-x-3-3-3-3-3-3-3-3-3-3-3-3-|
G#-7~~-7-7-7-7-7-7--3~~-3-3-3-3-3-3--x-x-x-3-3-3-3-3-3-3-3-3-3-3-3-|
C#-----------------------------------x-x-x-3-3-3-3-3-3-3-3-3-3-3-3-|

Guitar 2
D#-----------------------------------------------------------------|
A#-----------------------------------------------------------------|
F#-9~~-9-9-9-9-9-9--5~~-5-5-5-5-5-5--8-8-8--5~~-5-5-5-5-5-5--9-9-9-|
C#-x---x-x-x-x-x-x--x---x-x-x-x-x-x--x-x-x--x---x-x-x-x-x-x--x-x-x-|
G#-7~~-7-7-7-7-7-7--3~~-3-3-3-3-3-3--6-6-6--3~~-3-3-3-3-3-3--7-7-7-|
C#-----------------------------------------------------------------|

Guitar 1
D#------------------------------------------------------|
A#------------------------------------------------------|
F#-5-5-5-5-5-5-5-5-5-5-5-5------------------------------|
C#-5-5-5-5-5-5-5-5-5-5-5-5-3-3-3-3-3-3--3-3-3-3-3-3-3-3-|
G#-3-3-3-3-3-3-3-3-3-3-3-3-3-3-3-3-3-3--3-3-3-3-3-3-3-3-|
C#-------------------------3-3-3-3-3-3--3-3-3-3-3-3-3-3-|
Pm                                      . . . . . . . .

Guitar 2
D#------------------------------------------------------|
A#------------------------------------------------------|
F#-5~~-5-5-5-5-5-5--8-8-8--5~~-5-5-5-5------------------|
C#-x---x-x-x-x-x-x--x-x-x--x---x-x-x-x--3-3-3-3-3-3-3-3-|
G#-3~~-3-3-3-3-3-3--6-6-6--3~~-3-3-3-3--3-3-3-3-3-3-3-3-|
C#--------------------------------------3-3-3-3-3-3-3-3-|
Pm                                      . . . . . . . .

Verse 2

Guitar 1
D#---------------------------------------------------------------|
A#---------------------------------------------------------------|
F#-7-7---------6-7---7---6-7---7---8-8---------7-8---8---7-8---8-|
C#-7-7---------6-7---7---6-7---7---8-8---------7-8---8---7-8---8-|
G#-5-5---------4-5---5---4-5---5---6-6---------5-6---6---5-6---6-|
C#---------------------------------------------------------------|

Guitar 1
D#---------------------------------------------------------------|
A#---------------------------------------------------------------|
F#---------------------------------------------------------------|
C#-5-5---------4-5---5---4-5---5---3-3---------1-3---3---1-3---3-|
G#-5-5---------4-5---5---4-5---5---3-3---------2-3---3---2-3---3-|
C#-5-5---------4-5---5---4-5---5---3-3---------2-3---3---2-3---3-|


Guitar 2
D#-------------------------------------------------------------------------|
A#-------------------------------------------------------------------------|
F#-------------------------------------------------------------------------|
C#-0-0-8-0-8-0-7-8-0-8-0-7-8-0-8-0------10---10---9-10---10---9-10---10----|
G#----------------------------------6-6----6----6------6----6------6----6--|
C#-------------------------------------------------------------------------|
                                                                        |
                                                                        | x2
Guitar 2                                                               |
D#-----------------------------------------------------------------    |
A#-----------------------------------------------------------------    |
F#-----------------------------------------------------------------    |
C#-----------------------------------------------------------------    |
G#-----6---6---5-6---6---5-6---6--------5---5---3-5---5---3-5---5--    |
C#-5-5---5---5-----5---5-----5---5--3-3---3---3-----3---3-----3---3    |

Guitar 1
D#---------------------------------------------------------------|
A#---------------------------------------------------------------|
F#-7-7---------6-7---7---6-7---7---8-8---------7-8---8---7-8---8-|
C#-7-7---------6-7---7---6-7---7---8-8---------7-8---8---7-8---8-|
G#-5-5---------4-5---5---4-5---5---6-6---------5-6---6---5-6---6-|
C#---------------------------------------------------------------|

Guitar 1
D#-----------------------------------------------------------------|
A#-----------------------------------------------------------------|
F#-----------------------------------------------------------------|
C#-5-5-5-5-5-5-5-5-5-5-5-5-5-5-5-5-3-3-3-3-3-3-3-3-3-3-3-3-3-3-3-3-|
G#-5-5-5-5-5-5-5-5-5-5-5-5-5-5-5-5-3-3-3-3-3-3-3-3-3-3-3-3-3-3-3-3-|
C#-5-5-5-5-5-5-5-5-5-5-5-5-5-5-5-5-3-3-3-3-3-3-3-3-3-3-3-3-3-3-3-3-|

Breakdown 1

Guitar 1
D#------------------------------------------------------------------------|
A#------------------------------------------------------------------------|
F#--------------------------------------8-8-8~-5-5-5~-5-5-5-5-5-5-5-5-5-5-|
C#-0-0--0-0--0-0-0-0-0-0-0-0--0-0--0-0--8-8-8~-5-5-5~-5-5-5-5-5-5-5-5-5-5-|
G#-0-0--0-0--0-0-0-0-0-0-0-0--0-0--0-0--6-6-6~-3-3-3~-3-3-3-3-3-3-3-3-3-3-|
C#-0-0--0-0--0-0-0-0-0-0-0-0--0-0--0-0------------------------------------|
Pm           . . . . . . . .            . .    . .    . .

Guitar 2
D#---------------------------------------------------------------------------|
A#-----------4-3-----6-4-3---------------------------------------------------|
F#---------------3-2-------5-3-2-----------8-8-8~-5-5-5~-5-5-5-5-5-5-5-5-5-5-|
C#-0-0--0-0----------------------0-0--0-0--8-8-8~-5-5-5~-5-5-5-5-5-5-5-5-5-5-|
G#-0-0--0-0----------------------0-0--0-0--6-6-6~-3-3-3~-3-3-3-3-3-3-3-3-3-3-|
C#-0-0--0-0----------------------0-0--0-0------------------------------------|
Pm                                         . .    . .    . .

Guitar 1
D#--------------------------------------------------------------------|
A#--------------------------------------------------------------------|
F#--------------------------------------8-8-8~-5-5-5~-5-5-5-5-5-5-5-5-|
C#-0-0--0-0--0-0-0-0-0-0-0-0--0-0--0-0--8-8-8~-5-5-5~-5-5-5-5-5-5-5-5-|
G#-0-0--0-0--0-0-0-0-0-0-0-0--0-0--0-0--6-6-6~-3-3-3~-3-3-3-3-3-3-3-3-|
C#-0-0--0-0--0-0-0-0-0-0-0-0--0-0--0-0--------------------------------|
Pm           . . . . . . . .            . .    . .    . .

Guitar 2
D#---------------------------6-8-----------------------------------------|
A#-----------4-3-----6-4-3-8---------------------------------------------|
F#---------------3-2-----------------------8-8-8~-5-5-5~-5-5-5-5-5-5-5-5-|
C#-0-0--0-0----------------------0-0--0-0--8-8-8~-5-5-5~-5-5-5-5-5-5-5-5-|
G#-0-0--0-0----------------------0-0--0-0--6-6-6~-3-3-3~-3-3-3-3-3-3-3-3-|
C#-0-0--0-0----------------------0-0--0-0--------------------------------|
Pm                                         . .    . .    . .

Interlude

Guitar 1
D#--------------------------------------------------|
A#--------------------------------------------------|
F#--------------------------------------------------|
C#-0-------0-0----0-0-0-0--0-0--0-0----0-0-0-0--0-0-|
G#-0-------0-0----0-0-0-0--0-0--0-0----0-0-0-0--0-0-|
C#-0-------0-0----0-0-0-0--0-0--0-0----0-0-0-0--0-0-|

Guitar 2
D#-------------------------------------------------------|
A#-------------------------------------------------------|
F#-------------------------------------------------------|
C#-0-----------------------------------------------------|
G#-0----------8-7---------------------8-7----------------|
C#-0-------0~-----8h9h11~-8~~-12~~-0~-----8h9h11~-8h12~~-|

Guitar 1
D#-----------------------------------------------|
A#-----------------------------------------------|
F#-----------------------------------------------|
C#-0-0----0-0-0-0--0--0--0--0-0----0-0-0-0--0----|h1/
G#-0-0----0-0-0-0--0--0--0--0-0----0-0-0-0--0----|h1/
C#-0-0----0-0-0-0--0--0--0--0-0----0-0-0-0--0----|h1/

Guitar 2
D#-----------------------------------------------|
A#-----------------------------------------------|
F#-----------------------------------------------|
C#-----------------------------------------------|
G#----8-7---------------------8-7----------------|
C#-0~-----8h9h11~-8~~-12~~-0~-----8h9h11~-8h9h12-|

Pre Chorus

Guitar 1
D#------------------------------------------------|
A#------------------------------------------------|
F#-----------8~~~~~~~~~---------------------------|
C#-5~~~~~~~~-8~~~~~~~~~-5~~~~~~~~-3~~~~~~-x-x-x-x-|
G#-5~~~~~~~~-6~~~~~~~~~-5~~~~~~~~-3~~~~~~-x-x-x-x-|
C#-5~~~~~~~~------------5~~~~~~~~-3~~~~~~-x-x-x-x-|

Guitar 2
D#------------------------------------------------|
A#------------------------------------------------|
F#-7~~~~~~-7/14~~~~~~-14\7~~~~~~-7\5~~~~~-x-x-x-x-|
C#-x-------x/x--------x-\x-------x\x------x-x-x-x-|
G#-5~~~~~~-5/12~~~~~~-12\5~~~~~~-5\3~~~~~-x-x-x-x-|
C#------------------------------------------------|

Chorus (I would stay away from the guitar 2 part; it is hard to hear, so it probably
100% correct.)

Guitar 1
D#-----------------------------------------------------------------|
A#-----------------------------------------------------------------|
F#-----------------------------------------------------------------|
C#-5-5-5-5-5-5-5-5-5-5-5-5-5-8-8-8-3-3-3-3-3-3-3-3-3-3-3-3-3-3-3-3-|
G#-5-5-5-5-5-5-5-5-5-5-5-5-5-8-8-8-3-3-3-3-3-3-3-3-3-3-3-3-3-3-3-3-|
C#-5-5-5-5-5-5-5-5-5-5-5-5-5-8-8-8-3-3-3-3-3-3-3-3-3-3-3-3-3-3-3-3-|

Guitar 2
D#-----------------------------------------------------------------|
A#-----------------------------------------------------------------|
F#-3-3-3-3-3-3-3-3-3-3-3-3-3-4-4-4-5-5-5-5-5-5-5-5-5-5-5-5-5-5-5-5-|
C#-x-x-x-x-x-x-x-x-x-x-x-x-x-x-x-x-x-x-x-x-x-x-x-x-x-x-x-x-x-x-x-x-|
G#-1-1-1-1-1-1-1-1-1-1-1-1-1-2-2-2-3-3-3-3-3-3-3-3-3-3-3-3-3-3-3-3-|
C#-----------------------------------------------------------------|

Guitar 1
D#---------------------------------------------------------------|
A#---------------------------------------------------------------|
F#---------------------------10~-10-10~-10-10-9-10~-10-10-5~-5-5-|
C#---------------------------10~-10-10~-10-10-9-10~-10-10-5~-5-5-|
G#---------------------------8~~-8--8~~-8--8--7-8~~-8--8--3~-3-3-|
C#-1~-1-1--1-0~-1~-1-1--1-0~-------------------------------------|
Pm                               .      .

Guitar 2
D#---------------------------------------------------------------|
A#---------------------------------------------------------------|
F#---------------------------------------------------------------|
C#---------------------------8~~-8--8~~-8--8--7~~-7--7--3~~-3--3-|
G#---------------------------8~~-8--8~~-8--8--7~~-7--7--3~~-3--3-|
C#-1~-1-1--1-0~-1~-1-1--1-0~-8~~-8--8~~-8--8--7~~-7--7--3~~-3--3-|

Guitar 1
D#-----------------------------------------------------------------|
A#-----------------------------------------------------------------|
F#-----------------------------------------------------------------|
C#-5-5-5-5-5-5-5-5-5-5-5-5-5-8-8-8-3-3-3-3-3-3-3-3-3-3-3-3-3-3-3-3-|
G#-5-5-5-5-5-5-5-5-5-5-5-5-5-8-8-8-3-3-3-3-3-3-3-3-3-3-3-3-3-3-3-3-|
C#-5-5-5-5-5-5-5-5-5-5-5-5-5-8-8-8-3-3-3-3-3-3-3-3-3-3-3-3-3-3-3-3-|

Guitar 2
D#-----------------------------------------------------------------|
A#-----------------------------------------------------------------|
F#-3-3-3-3-3-3-3-3-3-3-3-3-3-4-4-4-5-5-5-5-5-5-5-5-5-5-5-5-5-5-5-5-|
C#-x-x-x-x-x-x-x-x-x-x-x-x-x-x-x-x-x-x-x-x-x-x-x-x-x-x-x-x-x-x-x-x-|
G#-1-1-1-1-1-1-1-1-1-1-1-1-1-2-2-2-3-3-3-3-3-3-3-3-3-3-3-3-3-3-3-3-|
C#-----------------------------------------------------------------|

Guitar 1
D#--------------------------------------------------------------------|
A#--------------------------------------------------------------------|
F#--------------------------------------------------------------------|
C#---------------------------8--8----8--8----7--7----7--7----10~-10\3-|
G#---------------------------8--8----8--8----7--7----7--7----10~-10\3-|
C#-1~-1-1--1-0~-1~-1-1--1-0~-8--8----8--8----7--7----7--7----10~-10\3-|

Guitar 2
D#--------------------------------------------------------------------|
A#--------------------------------------------------------------------|
F#---------------------------10-10---10-10---10-10---10-10---12~-12\5-|
C#---------------------------10-10---10-10---10-10---10-10---12~-12\5-|
G#---------------------------8--8----8--8----8--8----8--8----10~-10\3-|
C#-1~-1-1--1-0~-1~-1-1--1-0~------------------------------------------|

Bridge

Guitar 1
D#-----------------------------------------------------------------|
A#-----------------------------------------------------------------|
F#-----------------------------------------------------------------|
C#-5-5-5-5-5-5-5-8-3-3-3-3-3-3-3-3-1-1-1-1-1-1-1-1-8--8--7~~-10\3--| x2
G#-5-5-5-5-5-5-5-8-3-3-3-3-3-3-3-3-1-1-1-1-1-1-1-1-8--8--7~~-10\3--|
C#-5-5-5-5-5-5-5-8-3-3-3-3-3-3-3-3-1-1-1-1-1-1-1-1-8--8--7~~-10\3--|

Guitar 2
D#-----------------------------------------------------------------|
A#-----------------------------------------------------------------|
F#-------------------------------------------------10-10-10~-12/5--|
C#-5-5-5-5-5-5-5-8-3-3-3-3-3-3-3-3-1-1-1-1-1-1-1-1-10-10-10~-12/5--| x2
G#-5-5-5-5-5-5-5-8-3-3-3-3-3-3-3-3-1-1-1-1-1-1-1-1-8--8--8~~-10/3--|
C#-5-5-5-5-5-5-5-8-3-3-3-3-3-3-3-3-1-1-1-1-1-1-1-1-----------------|

Breakdown 2

Guitar 1
D#-------------------------|
A#-------------------------|
F#-------------------------|
C#-5-5-5-5--5--------------|
G#-5-5-5-5--5--------------|
C#-5-5-5-5--5--------------|

Guitar 2
D#-------------------------|
A#-------------------------|
F#-------------------------|
C#-5-----------5-5-5-5--5--|
G#-5-----------5-5-5-5--5--|
C#-5-----------5-5-5-5--5--|

Guitar 1
D#------------------------10-10-10-10-5-5-5-5------|
A#------------------------14-14-14-14-9-9-9-9------|
F#-------------------------------------------------|
C#-5-5-5-5--5--5-5-5-5--5--------------------------|
G#-5-5-5-5--5--5-5-5-5--5--------------------------|
C#-5-5-5-5--5--5-5-5-5--5--------------------------|
                                                   |
                                                   |-- x2
Guitar 1                                           |
D#------------------------10-10-10-10-5-5-5-5------|
A#------------------------14-14-14-14-9-9-9-9------|
F#-------------------------------------------------|
C#-5-5-5-5--5--5-5-5-5--5---------------------0h1/3|
G#-5-5-5-5--5--5-5-5-5--5---------------------0h1/3|
C#-5-5-5-5--5--5-5-5-5--5---------------------0h1/3|

Guitar 2
D#------------------------------------------------------------------|
A#------------------------------------------------------------------|
F#-2-2-2-2-2-2-2-2-2-2-2-2-2-2-2-2-2-2-2-2-2-2-2-2-2-2-2-2-2-2-2-2--|
C#------------------------------------------------------------------| x4
G#------------------------------------------------------------------|
C#------------------------------------------------------------------|

Guitar 1
D#------------------------10-10-10-10-5-5-5-5------|
A#------------------------14-14-14-14-9-9-9-9------|
F#-------------------------------------------------|
C#-5~~~~~~~~~~~-5-5-5-5\0--------------------------|
G#-5~~~~~~~~~~~-5-5-5-5\0--------------------------|
C#-5~~~~~~~~~~~-5-5-5-5\0--------------------------|

Guitar 1
D#-------10-10-10-10-5-5-5-5---------10-10-10-10-5-5-5-5------|
A#-------14-14-14-14-9-9-9-9---------14-14-14-14-9-9-9-9------|
F#------------------------------------------------------------|
C#------------------------------------------------------------|
G#------------------------------------------------------------|
C#------------------------------------------------------------|

Outro

Guitar 1 & 2
D#---------------------------------------------------------------------------|
A#---------------------------------------------------------------------------|
F#---------------------------------------------------------------------------|
C#-0---0---0~-0---0---0~-0-----0-------0---0---0~-0---0---0~-0-----0---------|
G#-0---0---0~-0---0---0~-0-----0-------0---0---0~-0---0---0~-0-----0---------|
C#-0---0---0~-0---0---0~-0-----0-6b~~~-0---0---0~-0---0---0~-0-----0-6b~-4b~-|
pm                             .                                   .

Guitar 1 & 2
D#--------------------------------------------------------------------------|
A#--------------------------------------------------------------------------|
F#--------------------------------------------------------------------------|
C#-0---0---0~-0---0---0~-0-------------0---0---0~-0---0---0~-0--------------|
G#-0---0---0~-0---0---0~-0-------------0---0---0~-0---0---0~-0--------------|
C#-0---0---0~-0---0---0~-0-------------0---0---0~-0---0---0~-0--------------|

Tab Legend
h  -  hammer-on
p  -  pull-off
/  -  slide up
\  -  slide down
ps/-  pickslide up
ps\-  pickslide down
~  -  let ring
pm.-  palm mute
b  -  bend
r  -  return from bend
*  -  harmonic
x  -  dead note

Ok, so just a quick comment on the guitar 2 part on this song. The Chorus was a
so the first part of it might not be correct because it is really hard to hear. So 
cut me
bit of slack on this song. It isn't the easiest tab for me, but not the hardest either. 
me! Oh, and one last thing... ROCK OUT!!!!
Добавлено: 02.12.2013
Другие материалы по этой песне:
  • Аккорды и текст

Страница создана 25.08.2013
http://primanota.ru/akissforjersey/the-evidence-chords.htm
Привет, Гость.
Предлагаем пройти революционный курс по гитаре.
Подарок от PrimaNota.Ru, забирай!