PrimaNota.ru - самый крупный в мире бесплатный архив песенных текстов, аккордов, табулатур и нот


Akissforjersey - Real Men Will Be Found With Their Face Flat On The Ground - таба, видео

Регистрация Запомнить меня
Войти через:  Facebook Google Twitter Vk Yandex Mail.ru

Akissforjersey - Real Men Will Be Found With Their Face Flat On The Ground - таба, видео

Печатать
Просмотров: 91
A Kiss For Jersey - Real Men Will Be Found With Their Face Flat On The Ground

Standard Tuning (EADGBe)
 
This Tab isn't complete - but nearly, I tried my best^^ 


INTRO

Guitar1 (close delay)

|---------9---8---------|---------9---8---------|
|-----------------9~----|-----------------9~----|
|---10------------------|---10------------------|
|-8----8----8---8-------|-8----8----8---8-------|
|-----------------------|-----------------------|
|-----------------------|-----------------------|

|-----------------------------------------------|
|--------6---9---6~--------6---9---6---6--------|
|---8-------------------------------------------|
|-6---6----6---6---------6---6---6---6---6------|
|-----------------------------------------------|
|-----------------------------------------------| (x3)

|-------9---8-----8-----|-------9---8-----8-----|
|--------------9--------|--------------9--------|
|---10------------------|---10------------------|
|-----------------------|-----------------------|
|-----------------------|-----------------------|
|-----------------------|-----------------------|

|-----------------------|-----------------------|
|--------6---9----------|------(6)--9-----------| dont play the F (6) the 2nd time
|---8-------------------|---8-------------------|
|-----------------------|-----------------------|
|-----------------------|-----------------------|
|-----------------------|-----------------------| (x2)


Guitar2 enters 2nd time

|---------------------------------------------|------------------------------------------------|
|---------------------------------------------|------------------------------------------------|
|---------------------------------------------|------------------------------------------------|
|--8--8--8----------------8--8--8-------------|--4--4--4----------------4--4--4----------------|
|--8--8--8----------------8--8--8-------------|--4--4--4----------------4--4--4----------------| 
|--6--6--6----------------6--6--6-------------|--2--2--2----------------2--2--2----------------| (x2)
PM .  .  .                .  .  .             PM .  .  .                .  .  .(Hold 2nd time)

|---------------------------------------------|------------------------------------------------|
|---------------------------------------------|------------------------------------------------|
|---------------------------------------------|------------------------------------------------|
|--8--8--8~~~~~~~~~~~~~~~~~~~~~~~~~~~~~~8/----|--4--4--4~~~~~~~~~~~~~~~~~~~~~~~~~~~~~~~~~4/----|
|--8--8--8~~~~~~~~~~~~~~~~~~~~~~~~~~~~~~8/----|--4--4--4~~~~~~~~~~~~~~~~~~~~~~~~~~~~~~~~~4/----|
|--6--6--6~~~~~~~~~~~~~~~~~~~~~~~~~~~~~~6/----|--2--2--2~~~~~~~~~~~~~~~~~~~~~~~~~~~~~~~~~2/----|

|---------------------------------------------|------------------------------------------------|
|---------------------------------------------|------------------------------------------------|
|---------------------------------------------|------------------------------------------------|
|--8--8--8~~~~~~~~~~~~~~~~~~~~~~~~~~~~~~~~~---|--4--4--4~~~~~~~~~~~~~~~~~~~~~~4444444444444444-|
|--8--8--8~~~~~~~~~~~~~~~~~~~~~~~~~~~~~~~~~---|--4--4--4~~~~~~~~~~~~~~~~~~~~~~4444444444444444-|
|--6--6--6~~~~~~~~~~~~~~~~~~~~~~~~~~~~~~~~~---|--2--2--2~~~~~~~~~~~~~~~~~~~~~~2222222222222222-|
PM                                                                            ........  


VERSE

|---------------------------------------------|---------------------------------------------|
|---------------------------------------------|---------------------------------------------|
|---------------------------------------------|---------------------------------------------|
|--8-8--8888--88--8888--8-8--8888--88--8888---|--4-4--4444--44--4444--6-6--6666--66--6666---|
|--8-8--8888--88--8888--8-8--8888--88--8888---|--4-4--4444--44--4444--6-6--6666--66--6666---|
|--6-6--6666--66--6666--6-6--6666--66--6666---|--2-2--2222--22--2222--4-4--4444--44--4444---| (x2)

|---------------------------------------------|---------------------------------------|
|---------------------------------------------|---------------------------------------|
|---------------------------------------------|---------------------------------------|
|--8-8--8888--88--8888--8-8--8888--88--8888---|--4-44-4-4-4-4-444---4-44-4-4-4-4-444--|
|--8-8--8888--88--8888--8-8--8888--88--8888---|--4-44-4-4-4-4-444---4-44-4-4-4-4-444--|
|--6-6--6666--66--6666--6-6--6666--66--6666---|--2-22-2-2-2-2-222---2-22-2-2-2-2-222--| (x3)
                                                      . . . .            . . . .  

|---------------------------------------------|-----------------------------------|
|---------------------------------------------|-----------------------------------|
|---------------------------------------------|-----------------------------------|
|--8~~~~~~~~~~~~~~~~~~~~~~~~~~~~~~~~~~~~~~~~~~|------------------------/x---------|  
|--8~~~~~~~~~~~~~~~~~~~~~~~~~~~~~~~~~~~~~~~~~~|------------------------/x---------|
|--6~~~~~~~~~~~~~~~~~~~~~~~~~~~~~~~~~~~~~~~~~~|------------------------/x---------|


CHORUS

|-----------------------------------|----------------------------------|
|-----------------------------------|----------------------------------|
|-----------------------------------|----------------------------------|
|--8-88--8-8--88----8-88--8-8--88---|--4-44--4-4--44----6-66--6-6--66--|
|--8-88--8-8--88----8-88--8-8--88---|--4-44--4-4--44----6-66--6-6--66--|
|--6-66--6-6--66----6-66--6-6--66---|--2-22--2-2--22----4-44--4-4--44--| (x2)


PostCHORUS :D

Guitar1

|----------------------------------|---------------------------------|
|----------------------------------|----------------4444222211112222-|
|-----666655555555----666655555555-|--------33333333-----------------|
|-3333------------3333-------------|44446666-------------------------|
|----------------------------------|---------------------------------|
|----------------------------------|---------------------------------|

|----------------------------------|---------------------------------|
|-44446666777777779999777766667646-|-42421---1-2-4-2-121---1-12-24---|
|----------------------------------|-------3-------------3-----------|
|----------------------------------|---------------------------------|
|----------------------------------|---------------------------------|
|----------------------------------|---------------------------------|

|-989811989--8-----989811989--8----|--------------------------------------------|
|--------------11---------------11-|-9--11--13-14-141311-141311-11~~~~~~~~~~~~--|
|----------------------------------|--------------------------------------------|
|----------------------------------|--------------------------------------------|
|----------------------------------|--------------------------------------------|
|----------------------------------|--------------------------------------------| (x2)

Guitar2

|--------------------------------------|--------------------------------------|
|--------------------------------------|--------------------------------------|
|--------------------------------------|--------------------------------------|
|--8------------------8----------------|--4------------------6----------------|
|--8------------------8----------------|--4------------------6----------------|
|--6--666666666666----6--666666666666--|--2--222222222222----4--444444444444--| (x2)
PM    ............       ............        ............       ............

|--------------------------------------|--------------------------------------|      
|--------------------------------------|--------------------------------------|     
|--------------------------------------|--------------------------------------|
|--8--888888888888----6--666666666666--|--6--666666666666----6--666666666666--|
|--8--888888888888----6--666666666666--|--6--666666666666----6--666666666666--|
|--6--666666666666----4--444444444444--|--4--444444444444----4--444444444444--| (x2)
                                                      not rly right^^ dont know :(

|---------|
|---------|
|---------|
|--8~~~~~~|
|--8~~~~~~|
|--6~~~~~~|

OUTRO

|---------9---8---------|---------9---8---------|
|-----------------9~----|-----------------9~----|
|---10------------------|---10------------------|
|-8----8----8---8-------|-8----8----8---8-------|
|-----------------------|-----------------------|
|-----------------------|-----------------------|

|-----------------------------------------------|
|--------6---9---6~--------6---9---6---6--------|
|---8-------------------------------------------|
|-6---6----6---6---------6---6---6---6---6------|
|-----------------------------------------------|
|-----------------------------------------------| (x3)

|--------|
|--------|
|-10~~~~-|
|-8~~~~~-|
|--------|
|--------|   tabbed by Punchup, yeay

Добавлено: 30.09.2013
Другие материалы по этой песне:
  • Аккорды и текст

Страница создана 02.08.2013
http://primanota.ru/akissforjersey/real-men-will-be-found-with-their-face-flat-on-the-ground-chords.htm
Привет, Гость.
Предлагаем пройти революционный курс по гитаре.
Подарок от PrimaNota.Ru, забирай!