PrimaNota.ru - самый крупный в мире бесплатный архив песенных текстов, аккордов, табулатур и нот


Akissforjersey - Parallels - таба, видео

Регистрация Запомнить меня
Войти через:  Facebook Google Twitter Vk Yandex Mail.ru

Akissforjersey - Parallels - таба, видео

Печатать
Просмотров: 77
----------------------------------------------------------------------------
                             Akissforjersey
                               Parallels
----------------------------------------------------------------------------

Hello, I know I always say something before making a tab, if you view my other
tabs, but I don't really have much to say with this song. It is ok to me, be it
isn't the best. I like the guitar part, and that actually makes it meaningful to
me. Enjoy!

Username: dkm817 (same on X box live)
Email: guitardrums@rockfan.com (Email Me!)

Guitar 1 Rhythmic (C# G# C# F# A# D#)
Guitar 2 Lead     (C# G# C# F# A# D#)

Intro

Guitar 1
D#-------------------------------------|
A#-------------------------------------|
F#-------------------------------------|
C#------------------1~/8~~~~~~~-10~-0~-|
G#------------------1~/8~~~~~~~-10~-0~-|
C#------------------1~/8~~~~~~~-10~-0~-|

Guitar 1
D#-----------------------------------------------------------------|
A#-----------------------------------------------------------------|
F#-----------------------------------------------------------------|
C#-0-0-0-0-0-0-0-0-0-0-0-0-0-0-0-0-8-8-8-8-8-8-8-8-7-7-7-7-5-5-3-3-|
G#-0-0-0-0-0-0-0-0-0-0-0-0-0-0-0-0-8-8-8-8-8-8-8-8-7-7-7-7-5-5-3-3-|
C#-0-0-0-0-0-0-0-0-0-0-0-0-0-0-0-0-8-8-8-8-8-8-8-8-7-7-7-7-5-5-3-3-|
Pm . . . . . . . . . . . . . . . . . . . . . . . . . . . . . . . .

Guitar 1
D#-----------------------------------------------------|
A#-----------------------------------------------------|
F#-----------------------------------------------------|
C#-0-0-0-0-0-0-0-0-0-0-0-0-0-0-0-0-7-7-7-7-10-10-10-10-|
G#-0-0-0-0-0-0-0-0-0-0-0-0-0-0-0-0-7-7-7-7-10-10-10-10-|
C#-0-0-0-0-0-0-0-0-0-0-0-0-0-0-0-0-7-7-7-7-10-10-10-10-|
Pm . . . . . . . . . . . . . . . .

Guitar 2
D#----------------------------------------|
A#----------------------------------------|
F#----------------------------------------|
C#---------14br-12-------14br-12----------| x6
G#-----------------12~~~---------12~~-10--|
C#----------------------------------------|

Verse 1

Guitar 1
D#------------------------------------------------ |
A#------------------------------------------------ |
F#------------------------------------------------ |
C#-8-8-8-8-8-8-8-8-5--5-5-7--7-7-10--10-10-3-3-3-3 |
G#-8-8-8-8-8-8-8-8-5--5-5-7--7-7-10--10-10-3-3-3-3 |
C#-8-8-8-8-8-8-8-8-5--5-5-7--7-7-10--10-10-3-3-3-3 |
					           |
Guitar 1					   |-- x2
D#-------------------------------------------------|
A#-------------------------------------------------|
F#-------------------------------------------------|
C#-8-8-8-8-8-8-8-8-0--0-0-5--5-5-7--7-7-10-10-10-10|
G#-8-8-8-8-8-8-8-8-0--0-0-5--5-5-7--7-7-10-10-10-10|
C#-8-8-8-8-8-8-8-8-0--0-0-5--5-5-7--7-7-10-10-10-10|

Guitar 2
D#----------------------------------------------------|
A#----10-12-13~----12-13----12-13----12-13------------|
F#-10-----------10-------10-------10-------10-10-10-10|
C#----------------------------------------------------|
G#----------------------------------------------------|
C#----------------------------------------------------|
                                                      |
Guitar 2                                              |---- x4
D#--------------------------------                    |
A#--------------------------------                    |
F#-9-9-9-9-9-9-9-9-9-9-9-9-9-9-9-9                    |
C#-x-x-x-x-x-x-x-x-x-x-x-x-x-x-x-x                    |
G#-7-7-7-7-7-7-7-7-7-7-7-7-7-7-7-7                    |
C#--------------------------------                    |

Verse 2

Guitar 1
D#-------------------------------------------------------------------------|
A#-------------------------------------------------------------------------|
F#-------------------------------------------------------------------------|
C#-8~~~~~-3~~~-7~-5~-8~~-8----3~~~-7~-5~-8~~-8----3~~~-7~-5~-8~~-8----3~~~-|
G#-8~~~~~-3~~~-7~-5~-8~~-8----3~~~-7~-5~-8~~-8----3~~~-7~-5~-8~~-8----3~~~-|
C#-8~~~~~-3~~~-7~-5~-8~~-8----3~~~-7~-5~-8~~-8----3~~~-7~-5~-8~~-8----3~~~-|

Guitar 2
D#------------------------------------------------   |
A#------------------------------------------------   |
F#------------------------------------------------   |
C#-15-15-15-14-14-14p12---------------------------   |
G#----------------------12-12-12-12-12-12-12-12-12   |
C#------------------------------------------------   |
                                                     |
Guitar 2                                             |--- x3
D#---------------------------------------------------|
A#---------------------------------------------------|
F#---------------------------------------------------|
C#-15-15-15-14-14-14p12------------------------------|
G#----------------------12-12-14h15-15-15-12-12-12-12|
C#---------------------------------------------------|

Guitar 1 continued
D#---------------------------------------------------------------|
A#---------------------------------------------------------------|
F#---------------------------------------------------------------|
C#-8-7-5-0~~~~~~~-8-7-5-0~~~~~~~-8-7-5-0~~~~~~~-8-7-5-0~~~~~~~~~-|
G#-8-7-5-0~~~~~~~-8-7-5-0~~~~~~~-8-7-5-0~~~~~~~-8-7-5-0~~~~~~~~~-|
C#-8-7-5-0~~~~~~~-8-7-5-0~~~~~~~-8-7-5-0~~~~~~~-8-7-5-0~~~~~~~~~-|

Guitar 2 (echo effect)
D#-------------------------------------------15h17p15------------|
A#----------------------------------15h17p15----------17p15-15~--|
F#-17-17-17-17-17-17-14h17p14h17-14------------------------------|
C#---------------------------------------------------------------| x2
G#---------------------------------------------------------------|
C#---------------------------------------------------------------|

Guitar 1
D#---------------------------------------------------------------------|
A#---------------------------------------------------------------------|
F#---------------------------------------------------------------------|
C#-0-0-0-0-0--0--0--0-0-0-0-0--0--0--8-8-8-8-8--8--8--8-8-8-8-8--8--8--| x2
G#-0-0-0-0-0--0--0--0-0-0-0-0--0--0--8-8-8-8-8--8--8--8-8-8-8-8--8--8--|
C#-0-0-0-0-0--0--0--0-0-0-0-0--0--0--8-8-8-8-8--8--8--8-8-8-8-8--8--8--|
Pm . . . . .  .  .  . . . . .  .  .  . . . . .  .  .  . . . . .  .  .

Guitar 2 (echo effect)
D#-------------------------------------------15h17p15------------|
A#----------------------------------15h17p15----------17p15-15~--|
F#-17-17-17-17-17-17-14h17p14h17-14------------------------------|
C#---------------------------------------------------------------| x2
G#---------------------------------------------------------------|
C#---------------------------------------------------------------|

Pre Chorus

Guitar 1 (clean)
D#--------------|
A#--------------|
F#-7~~~~~~~~~~~~
C#-x------------
G#-5~~~~~~~~~~~~
C#--------------

Guitar 2
D#--------------|
A#--------------|
F#-17~~~~~~~~~~~
C#--------------|
G#--------------|
C#--------------|

Chorus

Guitar 1
D#------------------------------------------------------------------|
A#------------------------------------------------------------------|
F#------------------------------------------------------------------|
C#-8-8-8-8-8-8-8-8-3-3-3-3-3-3-3-3-8-8-8-8-8-8-8-8-0-0-0-0-0-0-0-0--| x2
G#-8-8-8-8-8-8-8-8-3-3-3-3-3-3-3-3-8-8-8-8-8-8-8-8-0-0-0-0-0-0-0-0--|
C#-8-8-8-8-8-8-8-8-3-3-3-3-3-3-3-3-8-8-8-8-8-8-8-8-0-0-0-0-0-0-0-0--|

Guitar 2
D#--------------------------------------------|
A#--------------------------------------------|
F#-10-10-10-10-10-10-10-10-12-12-12-12-9-9-9-9|
C#-x--x--x--x--x--x--x--x--x--x--x--x--x-x-x-x|
G#-8--8--8--8--8--8--8--8--10-10-10-10-7-7-7-7|
C#--------------------------------------------|
                                              |
Guitar 2                                      |-- x2
D#--------------------------------------------|
A#--------------------------------------------|
F#-10-10-10-10-10-10-10-10-9-9-9-9-14-14-14-14|
C#-x--x--x--x--x--x--x--x--x-x-x-x-x--x--x--x-|
G#-8--8--8--8--8--8--8--8--7-7-7-7-12-12-12-12|
C#--------------------------------------------|
Breakdown

Guitar 1 x4
D#-------------------------------------------------|
A#-------------------------------------------------|
F#-------------------------------------------------|
C#-------------------------------------------------|
G#-------------------------------------------------|
C#-2-2--2-2--0-0--0-0--0--0--2-2--2-2--0-0--0-0----|

Guitar 1
D#----------------------------------------------------|
A#----------------------------------------------------|
F#-----------------------------------------------2----|
C#-----------------------------------------------2-3~-|
G#-----------------------------------------------0-3~-|
C#-2-2--2-2--0-0--0-0--0--0--2-2--2-2--0-0--0-0----3~-|

Guitar 2 x5
D#-------------------------------------------------|
A#-------------------------------------------------|
F#-9-9--9-9--7-7--7-7--7--7--9-9--9-9--7-7--7-7----|
C#-x-x--x-x--x-x--x-x--x--x--x-x--x-x--x-x--x-x----|
G#-7-7--7-7--5-5--5-5--5--5--7-7--7-7--5-5--5-5----|
C#-------------------------------------------------|

Interlude

Guitar 1
D#------------------------------------------------ |
A#------------------------------------------------ |
F#------------------------------------------------ |
C#-8-8-8-8-8-8-8-8-5--5-5-7--7-7-10--10-10-3-3-3-3 |
G#-8-8-8-8-8-8-8-8-5--5-5-7--7-7-10--10-10-3-3-3-3 |
C#-8-8-8-8-8-8-8-8-5--5-5-7--7-7-10--10-10-3-3-3-3 |
						   |
Guitar 1				           |-- x2
D#-------------------------------------------------|
A#-------------------------------------------------|
F#-------------------------------------------------|
C#-8-8-8-8-8-8-8-8-0--0-0-5--5-5-7--7-7-10-10-10-10|
G#-8-8-8-8-8-8-8-8-0--0-0-5--5-5-7--7-7-10-10-10-10|
C#-8-8-8-8-8-8-8-8-0--0-0-5--5-5-7--7-7-10-10-10-10|

Guitar 2
D#----------------------------------------------------|
A#----10-12-13~----12-13----12-13----12-13------------|
F#-10-----------10-------10-------10-------10-10-10-10|
C#----------------------------------------------------|
G#----------------------------------------------------|
C#----------------------------------------------------|
                                                      |
Guitar 2                                              |---- x4
D#--------------------------------                    |
A#--------------------------------                    |
F#-9-9-9-9-9-9-9-9-9-9-9-9-9-9-9-9                    |
C#-x-x-x-x-x-x-x-x-x-x-x-x-x-x-x-x                    |
G#-7-7-7-7-7-7-7-7-7-7-7-7-7-7-7-7                    |
C#--------------------------------                    |

Outro

Guitar 1
D#-------------------------------------------------------------------|
A#-------------------------------------------------------------------|
F#------------------2---------------------2---------------------2----|
C#-0~~~-0-0-0-0-0-0-2-3~-0~~~-0-0-0-0-0-0-2-3~-0~~~-0-0-0-0-0-0-2-3~-|
G#-0~~~-0-0-0-0-0-0-0-3~-0~~~-0-0-0-0-0-0-0-3~-0~~~-0-0-0-0-0-0-0-3~-|
C#-0~~~-0-0-0-0-0-0---3~-0~~~-0-0-0-0-0-0---3~-0~~~-0-0-0-0-0-0---3~-|

Guitar 1 continued
D#-------------------------|
A#-------------------------|
F#------------------2------|
C#-0~~~-0-0-0-0-0-0-2-3~-0-|
G#-0~~~-0-0-0-0-0-0-0-3~-0-|
C#-0~~~-0-0-0-0-0-0---3~-0-|

Guitar 2 (echo effect)
D#-------------------------------------------15h17p15------------|
A#----------------------------------15h17p15----------17p15-15~--|
F#-17-17-17-17-17-17-14h17p14h17-14------------------------------|
C#---------------------------------------------------------------| x4
G#---------------------------------------------------------------|
C#---------------------------------------------------------------|

Tab Legend
h  -  hammer-on
p  -  pull-off
/  -  slide up
\  -  slide down
ps/-  pickslide up
ps\-  pickslide down
~  -  let ring
pm.-  palm mute
b  -  bend
r  -  return from bend
*  -  harmonic

Well, there you go. Even if it isn't one of my favorite songs by Akissforjersey,
it is still good. Thanks for viewing, and one last thing... ROCK OUT!!!!
Добавлено: 03.06.2013
Другие материалы по этой песне:
  • Аккорды и текст

Страница создана 03.06.2013
http://primanota.ru/akissforjersey/parallels-chords.htm
Привет, Гость.
Предлагаем пройти революционный курс по гитаре.
Подарок от PrimaNota.Ru, забирай!