PrimaNota.ru - самый крупный в мире бесплатный архив песенных текстов, аккордов, табулатур и нот


Akissforjersey - Marvin Gaye And How I Stole Myself - текст песни, таба, видео

Регистрация Запомнить меня
Войти через:  Facebook Google Twitter Vk Yandex Mail.ru

Akissforjersey - Marvin Gaye And How I Stole Myself - текст песни, таба, видео

Печатать
Просмотров: 104
-------------------------------------------------------------------------
        "Marvin Gaye and How I Stole Myself" by Akissforjersey 
-------------------------------------------------------------------------

Tabbed by: thewakebehindyou
Email: thewakebehindyou@excite.com
Date: April 8th 2008

Tuning: C# G# C# F# A# D#

Intro to the last track from Akissforjersey's debut 
"Keep Your Head Above the Water"

========================================================================


Lead


Intro/Verse
16x
0:00 - 0:24
     E  E  E  E  E  E  E  E
e|------------12---------------|
B|---12----12----12----12------|
G|------11----------11----11---|
D|-----------------------------|
A|-----------------------------|
E|-----------------------------|

Pre-Chorus Lead Riff
0:34 - 0:37
     E  E  E  E  E  E  E  E  E  E  E  E  E  E  E  E
e|---------10-------10-------10-------10-------10-----------|
B|----------------------------------------------------------|
G|---11-12----12-11----12-11----12-11----12-11----12--------|
D|----------------------------------------------------------|
A|----------------------------------------------------------|
E|----------------------------------------------------------|

Chorus Lead Riff
8x
0:37 - 1:01
     E  E  E  E  E  E  E  E  E  E  E  E  E  E  E  E                        
e|---------10-------12-------12-------12-------12*----------|
B|---------------------12-------12-------12-------12--------| 
G|---11-12----12-11-------11-------11-------11--------------|
D|----------------------------------------------------------|
A|----------------------------------------------------------|
E|----------------------------------------------------------|
         *8th time, end riff on e12 (D#) quarter note


===========================================================================


Rhythm


Intro/Verse Rhythm Riff
0:00 -
     E         E         E         Q   
e|------------------------------------------|
B|------------------------------------------|
G|------------------------------------------|
D|---2---------0---------4---------4--------|
A|---2-(16x)---0-(8x)----4-(7x)----4-(1x)---|
E|---2---------0---------4---------4--------|
     x         x         x         x

    S S S S Q  Q  S S S S Q  Q  Q Q        S S S S Q  Q  S S S S Q  Q  Q Q
e|--------------------------------------------------------------------------|
B|--------------------------------------------------------------------------|
G|--------------------------------------------------------------------------|
D|--9-9-9-9-9-----9-9-9-9-9-----9-9--------9-9-9-9-9-----9-9-9-9-9-----9-9--|
A|--9-9-9-9-9-----9-9-9-9-9-----9-9--------9-9-9-9-9-----9-9-9-9-9-----9-9--|
E|--9-9-9-9-9-----9-9-9-9-9-----9-9--------9-9-9-9-9-----9-9-9-9-9-----9-9--|
    x x x x x     x x x x x                x x x x x     x x x x x 

     E         E         E         Q   
e|------------------------------------------|
B|------------------------------------------|
G|------------------------------------------|
D|---2---------0---------4---------4--------|
A|---2-(16x)---0-(8x)----4-(7x)----4-(1x)---|
E|---2---------0---------4---------4--------|
     x         x         x         x
    
    S S S S Q  Q  S S S S Q  Q  Q Q        S S S S Q  Q  S S S S Q  Q  Q Q
e|--------------------------------------------------------------------------|
B|--------------------------------------------------------------------------|
G|--------------------------------------------------------------------------|
D|--9-9-9-9-9-----9-9-9-9-9-----9-9--------9-9-9-9-9-----9-9-9-9-9-----9-9--|
A|--9-9-9-9-9-----9-9-9-9-9-----9-9--------9-9-9-9-9-----9-9-9-9-9-----9-9--|
E|--9-9-9-9-9-----9-9-9-9-9-----9-9--------9-9-9-9-9-----9-9-9-9-9-----9-9--|
    x x x x x     x x x x x                x x x x x     x x x x x
                                                                      - 0:24

Fill
0:24 - 0:33
     H  H  Q. E Q. E Q. E Q. E Q. E Q. E Q. E Q. E Q. E Q. 
e|-----------------------------------------------------------|
B|-----------------------------------------------------------|
G|-----------------------------------------------------------|
D|---5--4---------------4-4--5-5--4-4-----------------4-4----|
A|---------7--5-5--7-7-----------------7-7--5-5--7-7---------|
E|-----------------------------------------------------------|


Chorus
2x
0:37 - 1:01
     E         E         E         E
e|-------------------------------------------|
B|-------------------------------------------|
G|-------------------------------------------|
D|---9---------7---------4---------5---------|
A|---9-(16x)---7-(16x)---4-(16x)---5-(16x)---|
E|---9---------7---------4---------5---------|



==========================================================================
| Legend
| S = Sixteenth
| E = Eighth
| Q = Quarter
| Q.= 1.5 Beats
| H = Half
| x = Mute note

==========================================================================

Добавлено: 03.11.2013
Другие материалы по этой песне:
  • Аккорды и текст

Страница создана 08.03.2012
http://primanota.ru/akissforjersey/marvin-gaye-and-how-i-stole-myself-chords.htm
Привет, Гость.
Предлагаем пройти революционный курс по гитаре.
Подарок от PrimaNota.Ru, забирай!