PrimaNota.ru - самый крупный в мире бесплатный архив песенных текстов, аккордов, табулатур и нот


Akissforjersey - Cocaine - текст песни, таба, видео

Регистрация Запомнить меня
Войти через:  Facebook Google Twitter Vk Yandex Mail.ru

Akissforjersey - Cocaine - текст песни, таба, видео

Печатать
Просмотров: 125
AKISSFORJERSEY
Cocaine
Everything I Say Is A Secret



Intro: entire intro played twice!

Pt.1
---------------------------------                    
---------------------------------                    
--------------9-----8h9---------- 2x                   
-----------9-------------9-------                    
--------7--------7---------7-----                    
pm     *   *     *

Pt.2                                 For the last time through, play:
---------------------------------    --------------------------------
---------------------------------    --------------------------------
--------------9-----8h9----------    --------------9-----8h9----9~---
-----------9-------------9------- 2x -----------9------------9--9~---
---------------------------------    --------------------------------
-------9----------9--------9-----    -------9----------9-------------
pm     *   *      *                  pm     *   *      *        

__________

Pre-Verse:
----------------------------------------------------------------
----------------------------------------------------------------
-----------9--9----------------------------9--9-----------------
-----------------9---9---9~----------------------9---9---9~-----
-------7-7--7--7---7---7---------------7-7--7--7---7---7--------
----------------------------------------------------------------
pm     * *  *  *   *   *        pm     * *  *  *   *   *  

----------------------------------------------------------------
----------------------------------------------------------------
-----------------9---9---------------------------9---8h9--------
-----------9--9----------9~----------------9--9-----------9~----
-------7-7--7--7---7---7---------------7-7--7--7---7------------
----------------------------------------------------------------
pm     * *  *  *   *   *        pm     * *  *  *   *       

__________

Verse: 2 Guitars   only know 1 sorry!
gtr. 1
----------------------------------------------------------------
----------------------------------------------------------------
-----------9--9----------------------------9--9-----------------
-----------------9---9---9~----------------------9---9---9~-----
-------7-7--7--7---7---7---------------7-7--7--7---7---7--------
----------------------------------------------------------------
pm     * *  *  *   *   *        pm     * *  *  *   *   *  

----------------------------------------------------------------
----------------------------------------------------------------
-----------------9---9---------------------------9---8h9--------
-----------9--9----------9~----------------9--9-----------9~----
-------7-7--7--7---7---7---------------7-7--7--7---7------------
----------------------------------------------------------------
pm     * *  *  *   *   *        pm     * *  *  *   *       


chorus:
-------------------
-------------------
--9-8--------------
------11-9-8-------
-------------11-9--
-------------------

not sure about rest!
          help if you can!

















Добавлено: 23.11.2013
Другие материалы по этой песне:
  • Аккорды и текст

Страница создана 18.07.2012
http://primanota.ru/akissforjersey/cocaine-chords.htm
Привет, Гость.
Предлагаем пройти революционный курс по гитаре.
Подарок от PrimaNota.Ru, забирай!