PrimaNota.ru - самый крупный в мире бесплатный архив песенных текстов, аккордов, табулатур и нот


Akira Yamaoka - Rain Of Brass Petals - текст песни, таба, видео

Регистрация Запомнить меня
Войти через:  Facebook Google Twitter Vk Yandex Mail.ru

Akira Yamaoka - Rain Of Brass Petals - текст песни, таба, видео

Печатать
Просмотров: 244
-------------------------------------------------------------------------------
                      RAIN OF BRASS PETALS - Akira Yamaoka
-------------------------------------------------------------------------------
Tabbed by: jahu
Email: bueee@o2.pl

Tuning: EADGBe

sitar part.
this isn't how the bars actually go, but I think it's understandable.

e|---------|-----------------------|
B|-3-4-8---|-8-9-15-15-15-15-9-8---| x2
G|---------|-----------------------|
D|---------|-----------------------|
A|---------|-----------------------|
E|---------|-----------------------|

e|---------|----------|---------|--------|
B|-6-8-3---|-9-11-8---|-8-6-4---|-1--3---|
G|---------|----------|---------|--------|
D|---------|----------|---------|--------|
A|---------|----------|---------|--------|
E|---------|----------|---------|--------|

e|---------|----------|---------|--------|
B|-6-8-3---|-9-11-8---|-8-6-4---|-0--1---|
G|---------|----------|---------|--------|
D|---------|----------|---------|--------|
A|---------|----------|---------|--------|
E|---------|----------|---------|--------|

strings part (starts at 2:39).

e|----------|----------|---------|----------|
B|-11-------|-L---13---|-L-------|-L---18---|
G|----------|----------|---------|----------|
D|----------|----------|---------|----------|
A|----------|----------|---------|----------|
E|----------|----------|---------|----------|
 |
 |--W-------|-H----H---|-W-------|-H----H---|


e|----------|----------|----------|----------|
B|-16-------|-15-------|-13-------|-L---11---|
G|----------|----------|----------|----------|
D|----------|----------|----------|----------|
A|----------|----------|----------|----------|
E|----------|----------|----------|----------|
 |
 |--W-------|--W-------|--W-------|-H----H---|


e|---------|----------|----------|-----------|
B|-8-------|-L---11---|-13-------|-20---23---|
G|---------|----------|----------|-----------|
D|---------|----------|----------|-----------|
A|---------|----------|----------|-----------|
E|---------|----------|----------|-----------|
 |
 |-W-------|-H----H---|--W-------|--H----H---|


e|----------|----------|----------|----------|
B|-16-------|-L---15---|-18-------|-L-----20-|
G|----------|----------|----------|----------|
D|----------|----------|----------|----------|
A|----------|----------|----------|----------|
E|----------|----------|----------|----------|
 |
 |--W-------|-H----H---|--W-------|-H.----Q--|


e|----------|---------|---------|---------|
B|-L---13---|-L-------|-L-------|-L-------|
G|----------|---------|---------|---------|
D|----------|---------|---------|---------|
A|----------|---------|---------|---------|
E|----------|---------|---------|---------|
 |
 |-Q----H.--|-W-------|-W-------|-W-------|


| L  tie note

beat durations:

| W  whole note
| H  half note
| Q  quarter note
| .  dotted note

===============================================================================
Добавлено: 03.06.2013
Другие материалы по этой песне:
  • Аккорды и текст

Страница создана 03.06.2013
http://primanota.ru/akira-yamaoka/rain-of-brass-petals-chords.htm
Привет, Гость.
Предлагаем пройти революционный курс по гитаре.
Подарок от PrimaNota.Ru, забирай!