PrimaNota.ru - самый крупный в мире бесплатный архив песенных текстов, аккордов, табулатур и нот


Aking - Know Your Bones - аккорды и текст, таба, видео

Регистрация Запомнить меня
Войти через:  Facebook Google Twitter Vk Yandex Mail.ru

Aking - Know Your Bones - аккорды и текст, таба, видео

Печатать
Просмотров: 198
Уроки эстрадного вокала в Санкт-Петербурге
Know Your Bones
Aking
-----------------------------------------------------------------------------
                             KNOW YOUR BONES - aKING
-----------------------------------------------------------------------------
Tabbed by: hoxxx
E-mail: hokkanen.hannu@gmail.com

NOTES:
Standard tuning, pretty straight-forward song. Not exactly sure of everything (as 
usualy), because the guitars are quite tricky :) But hope you will have fun with it!

Love the band, hope someone would tab them more!!!


CHORD PATTERNS
--------------
E       022100
A       577655
B       799877
C#m     x46554
--------------


E
Glorious mistakes are anxiously waiting to be made
       A       B        C#m                E
in the nervous arms of a breakdown I find embrace
    A                     B              E             
you shake when you've got nothing to say


E           C#m       A          B                E
I know your bones are begging to step out of your wardrobe
                          C#m
couldn't leave well enough alone
A             B                  E          C#m   A
teach them to dance and let them go


E
There's more to life than a little bit of money, I know
A        B     C#m                 A    B   E                C#m
glory is fleeting but obscurity is eternal, once all hope is gone
    A                      B          E
why scream when you've got nothing to say?


E           C#m       A          B                E
I know your bones are begging to step out of your wardrobe
                          C#m
couldn't leave well enough alone
A             B                  E          C#m   A
teach them to dance and let them go


GUITAR SOLO: 
(start playing b-note under the chorus, listen to the song to get the idea!)
-|--------------------|--------------------|--------------------|-
-|------5-------------|---9----7-----------|--------------------|-
-|-4h6-----6-4-6------|-6----6----6-9--6-4-|-4--4--4h6--4-----4-|-
-|--------------------|--------------------|---------------6----|-
-|--------------------|--------------------|--------------------|-
-|--------------------|--------------------|--------------------|-

-|--------7-5---------|--------------------|---------------------|-
-|-7.-7b------7-5-----|----5-----5--9-9--7-|-7--5-5--------------|-
-|----------------6-4-|-6-----6-----6-6--6-|-6--6-6--4-4--4h6--4-|-
-|--------------------|--------------------|---------------------|-
-|--------------------|--------------------|---------------------|-
-|--------------------|--------------------|---------------------|-

-|----------------------|
-|----------------------|
-|-----4----------------|
-|--6-----6--4--2h4p2---|
-|----------------------|
-|----------------------|

GUITAR SOLO CHORDS:
E
C#m     A       B
E
C#m             A       B
E       C#m

A       B                    C#m
I'm not young enough to know everything
A       B           C#m
if stupidity got us into this
     A         B         E
then why can't it get us out again


E
Anything too dumb to be spoken should be sung
  A       B        C#m                E
a song is never finished only abandoned
A                  B              E 
sing if you've got nothing to say


E           C#m       A          B                E
I know your bones are begging to step out of your wardrobe
                          C#m
couldn't leave well enough alone
A             B                  E          C#m   A
teach them to dance and let them go

************************************

| /   slide up
| \   slide down
| h   hammer-on
| p   pull-off
| ~   vibrato
| +   harmonic
| x   Mute note
| b   Bend
| pb  Pre-bend
| br  Bend release
| pbr Pre-bend release
| brb Bend release bend
| .   Staccato

************************************
Добавлено: 15.04.2012
Другие материалы по этой песне:
  • Аккорды и текст

Страница создана 15.04.2012
http://primanota.ru/aking/know-your-bones-chords.htm
Привет, Гость.
Предлагаем пройти революционный курс по гитаре.
Подарок от PrimaNota.Ru, забирай!