PrimaNota.ru - самый крупный в мире бесплатный архив песенных текстов, аккордов, табулатур и нот


Akercocke - Verdelet - таба, бас-таба, видео

Регистрация Запомнить меня
Войти через:  Facebook Google Twitter Vk Yandex Mail.ru

Akercocke - Verdelet - таба, бас-таба, видео

Печатать
Просмотров: 159
Уроки эстрадного вокала в Санкт-Петербурге
Band: Akercocke
Album: Words That Go Unspoken Deeds That Go Undone
Song: Verdelet
Record Label: Earache

Taken frome metaltabs.com


Begin the metal mayhem!

---------------------------------------------------------------------|
---------------------------------------------------------------------|
---------------------------------------------------------------------|
-------------------54---------------------------------54-------------|
-9----222-222-222-32-222-222-222-54-222-222-222-222-32-2-5-4-5-------|
-7----000-000-000-----000-000-000-32-000-000-000-000-----0-3-2-3-----|
       pm. ... ...     ... ... ...     ... ... ... ...     . . . .

---------------------------------------------------------------|
---------------------------------------------------------------|
---------------------------------------------------------------|
-------------54---------------------------------54-------------|
-222-222-222-32-222-222-222-54-222-222-222-222-32-2-5-4-5------|
-000-000-000-----000-000-000-32-000-000-000-000-----0-3-2-3----|
 pm. ... ...     ... ... ...     ... ... ... ...     . . . .

------------------------------------------|
------------------------------------------|
------------------------------------------|
-----3-33333333333/4-----3----------------|
-222-1-11111111111/2-222-1-44-44444/54----|
-000-----------------000---22-22222/32----|

------------------------------------------|
------------------------------------------|
------------------------------------------|
-----3-33333333333/4-----3----------------|
-222-1-11111111111/2-222-1-44-4444-4-5-4--|
-000-----------------000---22-2222-2-3-2--|
                                   pm. .

----------------------------------------------------------------|
----------------------------------------------------------------|
----------------------------------------------------------------|
-------3-3-3-3-3-----------------------3-3-3--------------------|
-2-2-2-1-1-1-1-1-111-1-111-1-134-2-2-2-1-1-1-4-4-4-4-4-4-4-5----|
-0-0-0---------------------------0-0-0-------2-2-2-2-2-2-2-3-1--|
 pm. . . . . . . ... . ... . ... . . . . . . . . . . . . . . ph

----------------------------------------------------------------|
----------------------------------------------------------------|
----------------------------------------------------------------|
-------3-3-3-3-3-----------------------3-3-3--------------------|
-2-2-2-1-1-1-1-1-111-1-111-1-134-2-2-2-1-1-1-4-4-4-4-4-4-4-5----|
-0-0-0---------------------------0-0-0-------2-2-2-2-2-2-2-3-1--|
 pm. . . . . . . ... . ... . ... . . . . . . . . . . . . . . ph

----------------------------------------|
----------------------------------------|
----------------------0-----------------|
----------------------------------------|
--0--0-0--0--0--0-3-5----0--0-0--0--0-0-|
-1--1-1--0--4-----------1--1-1--0--4-4--|X2
let the notes ring

--------------------------------------------------------------------------|
-----------------------------------------------*--------------------------|
-------------------0---------------------------7--------------------------|
---5-6-5---5---------------5-6-5---5-------5-6-----5-6-5---5---3-4-3---3--|
-3-------3-----7-8---8-7-3-------3-----7-8-------3-------3---1-------1----|
-------------0-----------------------0------------------------------------|
* pinch harmonic played to the left of the center single coil(if you have one)

-------------------------------------------------------|
-------------------------------------------------------|
-------------------------------------------------------|
-2----------6------6-----6h7----------6------6h7-9h10--|
-0-00000000---0000---000-----00000000---0000-----------|
-------------------------------------------------------|
   pm......   ....   ...     ........   ....

-----------------------------------------------------|
-----------------------------------------------------|
-----------------------------------------------------|
----------6------6-----6h7----------6------6h7-9h10--|
--00000000---0000---000-----00000000---0000----------|
-----------------------------------------------------|X3
  pm......   ....   ...     ........   ....

Clean part (not too sure about this part)
-----------------------------------------------------|
-----0-----------0-----------0-----------0-----------|
---0---0-4/5---0---0-4/5----------54---------54------|
---------------------------7---7-------7---7---------|
-----------------------------------------------------|
-1-----------1-----------5-----------5---------------|X2

Gtr1
-------------------------------------------------------------------------|
-------------------------------------------------------------------------|
-------------------------------------------------------------------------|
-------------------------------------------------------------------------|
-333-333-3-3-5555--333-333-3-3-5555--777-777-7-7-::::--777-777-7-7-::::--|
-111-111-1-1-3333--111-111-1-1-3333--555-555-5-5-8888--555-555-5-5-8888--|X2
: = 10

-------------------------------------------|
-------------------------------------------|
-------------------------------------------|
-------------------------------------------|
-333-333-3-3-5555--333-333-3-3-------------|
-111-111-1-1-3333--111-111-1-1-*let ring*--|

Gtr2
-12h13p12---12h13p12----12h13p12h15p12ph13p12--|
-----------------------------------------------|
---------10----------10------------------------|
-----------------------------------------------|
-----------------------------------------------|
-----------------------------------------------|

------------------------------------------------|
-12h13p12----12h13p12----12h13p12h15p12ph13p12--|
----------14----------14------------------------|
------------------------------------------------|
------------------------------------------------|
------------------------------------------------|

-12h13p12---12h13p12----12h13p12h15p12ph13p12--|
-----------------------------------------------|
---------10----------10------------------------|
-----------------------------------------------|
-----------------------------------------------|
-----------------------------------------------|

------------------------------------------------------------------------|
-12h13p12----12h13p12----12h13p12h15p12ph13p12-12h13p12----12h13p12-----|
----------14----------14--------------------------------14----------14--|
------------------------------------------------------------------------|
------------------------------------------------------------------------|
------------------------------------------------------------------------|

Back to both guitars.
--------------------------------------------------------------------------|
-----------------------------------------------*--------------------------|
-------------------0---------------------------7--------------------------|
---5-6-5---5---------------5-6-5---5-------5-6-----5-6-5---5---3-4-3---3--|
-3-------3-----7-8---8-7-3-------3-----7-8-------3-------3---1-------1----|
-------------0-----------------------0------------------------------------|
trem......................................................................
* pinch harmonic

------------------------------------------------------|
------------------------------------------------------|
------------------------------------------------------|
-----------6------6-----6h7----------6------6h7-9h10--|
--00000000---0000---000-----00000000---0000-----------|
------------------------------------------------------|X4
  pm......   ....   ...     ........   ....

Clean part (not too sure about this part)
---------------------------------------------------|
-----0-----------0-----------0-----------0---------|
---0---0-4/5---------54---0---0-4/5---------54-----|
---------------7---7-------------------7---7-------|
---------------------------------------------------|
-1-----------5-----------1-----------5-------------|X3

----------------------------------|
----------------------------------|
----------------------------------|
----------------------------------|
-3-3-3-3-3-3-3-3-3-3-3-3-3-3-3-3--|
-1-1-1-1-1-1-1-1-1-1-1-1-1-1-1-1--|
 pm. . . . . . . . . . . . . . .

----------------------------------|
----------------------------------|
----------------------------------|
----------------------------------|
-3-3-3-3-3-3-3-3-3-3-3-3-3-3-3-3--|
-1-1-1-1-1-1-1-1-1-1-1-1-1-1-1-1--|

-------------------------------------------------------|
-------------------------------------------------------|
-------------------------------------------------------|
----------8--------5-----------------8--------5--------|
-7--------6--------3--------7--------6--------3--------|
-5--------------------------5--------------------------|
 trem..................................................

--------------------------------------------|
--------------------------------------------|
----0--0-0----0-0-0-0-----0--0-0----0-0-0-0-|
---7--7-7----7-----7----7--7-7----7------7--|
--------------------------------------------|
-5---------5----------5---------5-----------|


-------------------------------------------------------|
-------------------------------------------------------|
-------------------------------------------------------|
----------8--------5-----------------8--------5--------|
-7--------6--------3--------7--------6--------3--------|
-5--------------------------5--------------------------|
 trem..................................................


------------------------------------------------------------------|
------------------------------------------------------------------|
----0--0-0----0-0-0-0-----0--0-0----0-0-0-0---:-:--:-:--:-:--:-:--|
---7--7-7----7-----7----7--7-7----7------7----8-8--8-8--8-8--8-8--|
----------------------------------------------8-8--8-8--8-8--8-8--|
-5---------5----------5---------5-----------5/6-6--6-6--6-6--6-6--|
: = 10

-------------------------------------------------------------------|
-------------------------------------------------------------------|
----0--0-0----0-0-0-0-----0--0-0----0-0-0-0---:-:--:-:--:-:/#-#-#--|
---7--7-7----7-----7----7--7-7----7------7----8-8--8-8--8-8/:-:-:--|
----------------------------------------------8-8--8-8--8-8/:-:-:--|
-5---------5----------5---------5-----------5/6-6--6-6--6-6/8-8-8--|

Thats it!
Praise the name ov satan
: = 10
# = 12
Добавлено: 04.03.2012
Другие материалы по этой песне:

Страница создана 04.03.2012
http://primanota.ru/akercocke/verdelet-chords.htm
Привет, Гость.
Предлагаем пройти революционный курс по гитаре.
Подарок от PrimaNota.Ru, забирай!