PrimaNota.ru - самый крупный в мире бесплатный архив песенных текстов, аккордов, табулатур и нот


Akercocke - Valley Of The Crucified - текст песни, таба, видео

Регистрация Запомнить меня
Войти через:  Facebook Google Twitter Vk Yandex Mail.ru

Akercocke - Valley Of The Crucified - текст песни, таба, видео

Печатать
Просмотров: 101
borowed from metaltabs.com Paul filth

Band: Akercocke
Album: Chronozon
Song: Valley of the Crucified
Tuning: C F A# D# G C
Record Label: Earache

Listen to song for exact rythm

--------------------|
--------------------|
--------------------|
--------------------|
-7-5-4----8-5-4-----|
-5-5-5-X2-6-6-6-X2--|X2

----------------------|
----------------------|
----------------------|
----------------bend--|
-7-5-4----6-6-6-5-----|
-5-5-5-X2-4-4-4-------|

--------------------|
--------------------|
--------------------|
--------------------|
-7-5-4----8-5-4-----|
-5-5-5-X2-6-6-6-X2--|X2

----------------------|
----------------------|
----------------------|
----------------bend--|
-7-5-4----6-6-6-5-----|
-5-5-5-X2-4-4-4-------|

1.09
----------------|
----------------|
----------------|
----------------|
-5---4---5---8--|
-3---3---4---4--|X4

--------|
--------|
--------|
--------|
-8-6-5--|
-6-4-3--|X2

--------------|
--------------|
--------------|
-----5-4-5----|
-8-6-x-x-x----|
-6-4-3-3-3-5--|X7 On 5th to 7th its pm'd

--------|
--------|
--------|
--------|
-8-6-5--|
-6-4-3--|

2.05 (clean)
----------------------------|
----------------------------|
-----4-----4-----4-----4----|
----------------------------|
---2-----2-----3-----3------|
-0-----0-----1-----1--------| gtr1 repeats this riff for quite a while

gtr2
--------------|
--------------|
--------------|
------2-----2-|
------2-----2-|
------0-----0-|

--------------|
--------------|
--------------|
------2-----2-|
------2-----2-|
------0-----0-|

--------------|
--------------|
--------------|
------2-----2-|
------2-----2-|
------0-----0-|

------------------------------------------------|
------------------------------------------------|
------------------------------------------------|
----------------------4-5-4--------------4-5-7--|
-5-3---2---5-3---2----2-3-2-2--5-3---2---2-3-5--|
-3-1---0---3-1---0----------0--3-1---0----------|

--------------|
--------------|
--------------|
------2-----2-|
------2-----2-|
------0-----0-|

--------------|
--------------|
--------------|
------2-----2-|
------2-----2-|
------0-----0-|

------------------------------------------------|
------------------------------------------------|
------------------------------------------------|
----------------------4-5-4--------------4-5-7--|
-5-3---2---5-3---2----2-3-2-2--5-3---2---2-3-5--|
-3-1---0---3-1---0----------0--3-1---0----------|

------------------------------------------------|
------------------------------------------------|
------------------------------------------------|
----------------------4-5-4--------------4-5-7--|
-5-3---2---5-3---2----2-3-2-2--5-3---2---2-3-5--|
-3-1---0---3-1---0----------0--3-1---0----------|
 trem..........................................
 pm............................................

-------------|
-------------|
-------------|
-3--2--5--2--|
-x--x--7--x--|
-1--0--3--0--|X3

---------------------------|
---------------------------|
---------------------------|
-20202-656535-20202-43456--|
---------------------------|
---------------------------|X2
 TREM.....................
 PM.......................

------------------|
------------------|
------------------|
------------------|
-3-2-3-2-3-2-5-1--|
------------------|X3
Pm...............
Trem.............

-------------------------------------|
-------------------------------------|
-------------------------------------|
-------------------------------------|
-1-0-2-1--1-0-2-1--1-0-5-6--1-0-5-6--|
-------------------------------------|X2
trem................................
pm..................................

------------------------------|
------------------------------|
------------------------------|
------------------------------|
-5-----6--------6-5-4---------|
---4-0---5-0-X3-------5-4-3---|X4
 pm........................

----------------|
----------------|
----------------|
----------------|
---6---6---6-7--|
-0---0---0------|Repeat until end
 trem..........
 pm............

any corrections or anything send to:
septic_flesh241@hotmail.com
Добавлено: 24.03.2012
Другие материалы по этой песне:
  • Аккорды и текст

Страница создана 24.03.2012
http://primanota.ru/akercocke/valley-of-the-crucified-chords.htm
Привет, Гость.
Предлагаем пройти революционный курс по гитаре.
Подарок от PrimaNota.Ru, забирай!