PrimaNota.ru - самый крупный в мире бесплатный архив песенных текстов, аккордов, табулатур и нот


Akercocke - Scapegoat - текст песни, таба, видео

Регистрация Запомнить меня
Войти через:  Facebook Google Twitter Vk Yandex Mail.ru

Akercocke - Scapegoat - текст песни, таба, видео

Печатать
Просмотров: 127
borowed from Robbie Filth on metaltabs.com
taken and put up by Paul Filth.

Band: Akercocke
Album: Chronozon
Song: Scapegoat
Record Label: Earache
Tuning: C F A# D# G C

---------------------------------------------------------|
---------------------------------------------------------|
---------------------------------------------------------|
---------------------------------------------------------|
-4------------4----4--4-454------------------------------|
--333333333333-3333-33-3---3333333322222222444443333-----|
  pm.......... .... .. .   .........................

----------------------------------------------|
----------------------------------------------|
----------------------------------------------|
----------------------------------------------|
-4------------4----4--4-454--------434543-----|
--333333333333-3333-33-3---33333333212321-----|X3
  pm.......... .... .. .   ..............

--------------------------------------------------------------|
--------------------------------------------------------------|
--------------------------------------------------------------|
--------------------------------------------------------------|
-222235228---222235228---222258229---222258229----8-9--8-9----|
-000013006---000013006---000036007---000036007---0607-0607----|

--------------------|
--------------------|
--------------------|
-----4-5-4-5-4------|
---------------4----|
-2-3-------------3--|X4
 trem pik.........

--------------------|
--------------------|
---------4----------|
-----4-5---5-4------|
---------------3----|
-2-3----------------|X4
 trem pik........

---------------------------------------------------------|
---------------------------------------------------------|
---------------------------------------------------------|
---------------------------------------------------------|
-4------------4----4--4-454------------------------------|
--333333333333-3333-33-3---3333333322222222444443333-----|
  pm.......... .... .. .   .........................

----------------------------------------------|
----------------------------------------------|
----------------------------------------------|
----------------------------------------------|
-4------------4----4--4-454--------434543-----|
--333333333333-3333-33-3---33333333212321-----|X2
  pm.......... .... .. .   ..............

-------------------------|
-------------------------|
-------------------------|
-----7---7-----6-----3---|
---7---------6-----3-----|
-5-----5---4-----1-------|X4

-----------------------------|
-----------------------------|
-----------------------------|
--55-5-55-5-55-5-55-5-55-5---|
-----------------------------|
-----------------------------|
 this part is weird but listen 2 the song 2 get it

------------------------------------------------------|
------------------------------------------------------|
------------------------------------------------------|
--------4-5------------4-5-------4-5------------4-5---|
-w---4-5----w----w-4-5-----w--4-5----w----w-4-5-------|
-2----------1----0---------2---------1----0-----------|
 bend       bend           bend      bend
 listen 2 the way u use the whammy bar here w's are whammy parts

-------6-------------------6----------------|
-------ph------------------ph---------------|
--------------------------------------------|
--------------------------------------------|
---4-3-----4-3---------4-3----4-3-7-6-------|
-2-------2-----5-4--2-------2-----5-4-------|X2
 trem..............................pm..

---------------------------------------|
---------------------------------------|
---------------------------------------|
---5-6-5---5-6-5---5-6-5---------------|
-4-3-4-3-4-3-4-3-4-3-4-3-4-8-7-4-------|
-2-------2-------2-------2-6-5-2-------|X4
 pm..............................

gtr1
----------------------------------------------------|
----------------------------------------------------|
----------------------------------------------------|
---444-444-444-555-444-444-444-555-444-444-444-555--|
-4--------------------------------------------------|
-2--------------------------------------------------|

gtr2
-------------------------------|
-------------------------------|
-------------------------------|
-------------------------------|
-4-------4---------------------|
-2-------2-\\\\\\\\\\\\\\\\----|
    let ring pik scrape

---------------------------|
---------------------------|
---------------------------|
-4-4-5-4-4-3-3-------------|
---------------------------|
--2-2-2-2-2-2-2------------|X4

---------------------------------------|
---------------------------------------|
---------------------------------------|
-11---11---12------12------------------|
-9-99-9-99-10-1010-10-1010-1213\10-9---|
---------------------------------------|X8
                           trill

------------|
------------|
------------|
----6-5-----|
-4--4-3--5--|
-2-------3--|X2
 pm.......

----------|
----------|
----------|
----------|
---4-3----|
-2-----3--|X8
 trem...
 pm.....
----------------------------------|
----------------------------------|
----------------------------------|
----------------------------------|
---4-3---------------4-3----------|
-2-----4-1-2-1-----2-----4-0-1----|
 trem pik pm...................

----------|
----------|
----------|
----------|
---4-3----|
-2-----3--|X8
 trem...
 pm.....

----------------------------------|
----------------------------------|
----------------------------------|
----------------------------------|
---4-3---------------4-3----------|
-2-----4-1-2-1-----2-----4-0-1----|
 trem pik pm...................

---------------------------------------|
---------------------------------------|
---------------------------------------|
-11---11---12------12------------------|
-9-99-9-99-10-1010-10-1010-1213\10-9---|
---------------------------------------|until end
                           trill

any corrections mail to septic_flesh241@hotmail.com
Добавлено: 02.05.2012
Вам также может быть интересно:
Другие материалы по этой песне:
  • Аккорды и текст

Страница создана 02.05.2012
http://primanota.ru/akercocke/scapegoat-chords.htm
Привет, Гость.
Предлагаем пройти революционный курс по гитаре.
Подарок от PrimaNota.Ru, забирай!