PrimaNota.ru - самый крупный в мире бесплатный архив песенных текстов, аккордов, табулатур и нот


Akercocke - Enraptured By Evil - текст песни, таба, видео

Регистрация Запомнить меня
Войти через:  Facebook Google Twitter Vk Yandex Mail.ru

Akercocke - Enraptured By Evil - текст песни, таба, видео

Печатать
Просмотров: 124
taken from metaltabs.com all thanks to John Mansley "borowed by Paul Filth to put up on ultimate guitar.

Band:  Akercocke
Album: Chronozon
Song:  Enraptured By Evil

Copyright (c)  (Earache) (2003)
Version 1.0 - (14/3/04)

Transcribed By: John Mansley
Email:          john@smansley.freeserve.co.uk


.  - palm mute           /  - slide up to
\  - slide down to       ~  - vibrato
h  - hammer on           b  - Bend
p  - pull off            Suffixes for bend
t  - tap                 f  - full bend    h - half bend
ph - pinched harmonic    q  - quarter bend t - tap bend
*  - see comment         ^  - Hold bend    r release bend
x  - Stuccatto           ~  - vibrato bend
,  - slight palm mute    () - ghost note, sustained note
"  - tremolo note        <> - Trill
nh - natural harmonic

Notes  : All guitars are notated as distorted unless otherwise
         stated.

Tunning: Tune down 2 whole steps to C F A# D# G C


Riff A:

|---------------------|
|---------------------|
|---------------------|
|---------------------|
|---------------------|
|-4111-4000-4210-4210-|
  .... .... .... ....


Riff B:

|------------------|------------------|
|------------------|------------------|
|------------------|------------------|
|------------------|------------------|
|---------33-------|------------------|
|-11111111--222222-|-4444444455555555-|
  ........  ......   ................


Riff C: (those are 16's, 14's and 13's)

|-------------------------|-------------------------|
|-------------------------|-------------------------|
|-------------------------|-------------------------|
|-------------------------|-------------------------|
|-------------------------|-------------------------|
|-16000-14000-13000-16000-|-14000-13000-16000-14000-|
   ....  ....  ....  ....    ....  ....  ....  ....
 __________________  __________________  __________________
                1,3|                  2|                  4|
|-------------------|-------------------|-------------------|
|-------------------|-------------------|-------------------|
|-------------------|-------------------|-------------------|
|-----------------4-|-------------------|-------------------|
|-------4----3----2-|-------4----4----3-|-------4----4----4-|
|-13000-2----1------|-13000-2----2----1-|-13000-2----2----2-|
   ....                ....                ....


Riff D:           _______________  _______________________
                                1|                       2|
|----------------|----------------|------------------------|
|----------------|----------------|------------------------|
|----------------|----------------|------------------------|
|----------------|----------------|------------------------|
|-3--333--3--333-|-4--444--2--222-|-4--444--444--44--------|
|-1--111--1--111-|-2--222--0--000-|-2--222--222--22-/(12)\-|


Riff E:

|------------------|----------------------|
|------------------|----------------------|
|------------------|----------------------|
|------------------|----------------------|
|-----99998888-----|-99998888----12121212-|
|-0000--------0000-|---------0000---------|
  ................   ............ . . . .

|------------------------------|--------------------|
|------------------------------|--------------------|
|------------------------------|----------ph--------|
|------------------------------|----------7bh-------|
|-11111111----1212121211111111-|-----8888-----------|
|---------0000-----------------|-0000---------------|
   . . . ..... . . . . . . . .   ........


Riff F:          _________________  _________________
                                 1|                 2|
|---------------|------------------|------------------|
|---------------|------------------|------------------|
|---------------|------------------|------------------|
|-44444--44444--|-44444--7-7-7-7-7-|-44444--6-6-6-6-6-|
|-44444--44444--|-44444--5-5-5-5-5-|-44444--4-4-4-4-4-|
|-22222--22222--|-22222--5-5-5-5-5-|-22222--4-4-4-4-4-|
  .....  .....    .....              .....


Riff G: (Gtr1, clean, w/tremelo effect)

|-0---------------|-------------------|-0----------------|
|-0---------------|-------------------|----0-------------|
|-0---------------|-------------------|-------0----------|
|-5---------------|-------------------|----------5-------|
|-7---------------|-------------------|-------------7--6-|
|-----------------|-------------------|------------------|

|-0---------------|-------------------|----------------0-|
|-0---------------|-------------------|----------0-------|
|-0---------------|-------------------|------------------|
|-5---------------|-------------------|-------5-----5----|
|-6---------------|-------------------|----6-------------|
|-----------------|-------------------|------------------|


Riff H1: (Gtr2)     ____________________________________
                                                       1|
|------------------|------------------|------------------|
|------------------|------------------|------------------|
|------------------|------------------|------------------|
|------------------|------------------|------------------|
|------------------|------------------|-------------7777-|
|-2222222233333333-|-3333333333333333-|-333333333333-----|
  ................   ................   ................
 ____________________________________
                                    2|
|------------------|------------------|
|------------------|------------------|
|------------------|------------------|
|------------------|------------------|
|------------------|------------------|
|-2222222222222222-|-2222222222222222-|
  ................   ................


Riff H2:            ____________________________________
                                                       1|
|------------------|------------------|------------------|
|------------------|------------------|------------------|
|------------------|------------------|------------------|
|-4-------5--------|------------------|------------------|
|-4-------5--------|------------------|------------------|
|-2-------3--------|------------------|---------/(12)~~~-|
 ____________________________________
                                    2|
|------------------|------------------|
|------------------|------------------|
|------------------|------------------|
|-4----------------|------------------|
|-4----------------|------------------|
|-2----------------|------------------|


Riff I:

|Gtr1
|--------------------|--------------------|--------------------|
|-13-12-----------grad-bend---------------|-14-13--------------|
|------12bq----------|--------------------|------13~~~~~~~~~~~-|
|--------------------|--------------------|--------------------|
|--------------------|--------------------|--------------------|
|--------------------|--------------------|--------------------|
|                    |                    |                    |
|Gtr2                |                    |                    |
|--------------------|--------------------|--------------------|
|--------------------|--------------------|--------------------|
|--------------------|--------------------|--------------------|
|------7---------5---|------7---------5---|------8---------6---|
|-55--5---55--556-65-|-55--5---55--556-65-|-66--6---66--667-76-|
|--------------------|--------------------|--------------------|
  ..  ..  ..  ......   ..  ..  ..  ......   ..  ..  ..  ......

 ___________________  ___________________
                   1|                   2|
|Gtr1
|--------------------|--------------------|
|--------------------|--------------------|
|-15-----------------|-4-3----------------|
|--------------------|------3-2-----------|
|--------------------|-----------2-1------|
|--------------------|----------------1-0-|
|                    |                    |
|Gtr2                |                    |
|--------------------|--------------------|
|--------------------|--------------------|
|--------------------|-4-3----------------|
|------8---------6---|------3-2-----------|
|-66--6---66--667-76-|-----------2-1------|
|--------------------|----------------1-0-|
  ..  ..  ..  ......


Riff J:

|------------------|------------------|
|------------------|------------------|
|------------------|------------------|
|------------------|------------------|
|------------------|-------7766-------|
|-0011004433001100-|-665500----550011-|
  ................   ................


Riff K:

|------------------|----------------------|
|------------------|----------------------|
|------------------|----------------------|
|-8888888888888888-|-44447777777710101010-|
|-6666666666666666-|-222255555555-8-8-8-8-|
|------------------|----------------------|


Riff L:

|------------------------------|----------------------------------|
|------------------------------|----------------------------------|
|------------------------------|----------------------------------|
|-9999101010101010101010101010-|-10101010101010101010101010101010-|
|-7777-8-8-8-8-8-8-8-8-8-8-8-8-|--8-8-8-8-8-8-8-8-8-8-8-8-8-8-8-8-|
|------------------------------|----------------------------------|


Riff M:

|----------------|----------------|----------------|----------------|
|----------------|----------------|----------------|----------------|
|----------------|----------------|----------------|----------------|
|6-------6-------|6-------6-------|4-------4-------|5-------5-------|
|--9-8-6---9-8-6-|--9-8-6---9-8-6-|--7-5-4---7-5-4-|--8-6-5---8-6-5-|
|----------------|----------------|----------------|----------------|
 . . . . . . . .  . . . . . . . .  . . . . . . . .  . . . . . . . .


Riff N: (Each note is a 16th despite the mis-alignment in the
        notation.  Play REAL fast!)

|Gtr1
|---------------------------------|---------------------------------|
|---------------------------------|---------------------------------|
|-9-9-9-9-9-9-9-91010101010101010-|1212121213131313-9-9-9-9-9-9-9-9-|
|---------------------------------|---------------------------------|
|---------------------------------|---------------------------------|
|---------------------------------|---------------------------------|
|                                 |                                 |
|Gtr2 (those notes are 12,14,15,17 and 18)                          |
|---------------------------------|---------------------------------|
|---------------------------------|---------------------------------|
|---------------------------------|---------------------------------|
|---------------------------------|---------------------------------|
|-0-01214-0-01214-0-01415-0-01415-|-0-01517-0-01718-0-01214-0-01214-|
|---------------------------------|---------------------------------|


|Gtr1
|---------------------------------|
|---------------------------------|
|10101010101010101212121213131313-|
|---------------------------------|
|---------------------------------|
|---------------------------------|
|                                 |
|Gtr2                             |
|---------------------------------|
|---------------------------------|
|---------------------------------|
|---------------------------------|
|-0-01415-0-01415-0-01517-0-01718-|
|---------------------------------|


Ending:

|---------------|------------------|
|---------------|------------------|
|---------------|------------------|
|-44444--44444--|-44444--7-7-7-7-6-|
|-44444--44444--|-44444--5-5-5-5-4-|
|-22222--22222--|-22222--5-5-5-5-4-|
  .....  .....    .....



Song Structure:

Riff A  (x4 w/ just Gtr1, Gtr2 comes in with a pick scrape on 4th
        repetition, then x8 w/ both Gtrs)
Riff B  (x2)
Riff C
Riff D
Riff E  (x4, Gtr1 plays harmony on 3rd and 4th repetition)
Riff F  (x2)
Riff G  (x2, Gtr2 comes in with a pick scrape during last bar)
Riff H1 (x2) & Riff G (x2)
Riff H2 (x2)
Riff I
Riff J  (x4)
Riff K  (x2)
Riff L  (x8)
Riff M  (x4)
Riff N  (x2)
Ending


I hope that's easy to understand but if in doubt just listen to the
CD.  Any comments, corrections or suggestions are welcome.
Добавлено: 14.06.2012
Другие материалы по этой песне:
  • Аккорды и текст

Страница создана 07.05.2012
http://primanota.ru/akercocke/enraptured-by-evil-chords.htm
Привет, Гость.
Предлагаем пройти революционный курс по гитаре.
Подарок от PrimaNota.Ru, забирай!