PrimaNota.ru - самый крупный в мире бесплатный архив песенных текстов, аккордов, табулатур и нот


Akercocke - Axiom - текст песни, таба, видео

Регистрация Запомнить меня
Войти через:  Facebook Google Twitter Vk Yandex Mail.ru

Akercocke - Axiom - текст песни, таба, видео

Печатать
Просмотров: 221
Уроки эстрадного вокала в Санкт-Петербурге
Авторы музыки: David Gray
Авторы текста: David Gray
-------------------------------------------------------------------------------
                             Axiom - Akercocke
-------------------------------------------------------------------------------
Tabbed by:Greg M

 All tremolo riffs are most likely counted wrong. I only provide the riffs.

Tuning: C Standard (C F Bb Eb G c)

Intro (Repeat)
c|-----7----------7----------------------------------------------------------|
G|--------8----------8-------0-------0---------------------------------------|
E|---11-11--11--11-11--11---0-0-----0-0--------------------------------------|
B|--9------9---9------9----5---5---5---5-------------------------------------|
F|-7----------7-----------7-----7-7-----7------------------------------------|
C|-----------------------8-------8-------------------------------------------|

Riff A (Counting is off, repeat)
e|---------------------------------------------------------------------------|
B|---------------------------------------------------------------------------|
G|---------------------------------------------------------------------------|
D|---------------------------------------------------------------------------|
A|------77777-5555-88888-----------------------------------------------------|
E|-00000---------------------------------------------------------------------|

Riff B            3   3   3   3
e|---------------------------------------------------------------------------|
B|---------------------------------------------------------------------------|
G|----------------------------------------------------------[9]--------------|
D|-------9--10-9------------------------9-10-9-------------------------9-10-9|
A|-------7--8--7------------------------7-8--7-------------7-----------7-8--7|
E|-0-000---------000-110-440-331--0-000--------000-110-440-------0-000-------|
   . ...         ... ... ... ...  . ...
 There is another patern on the C string there, but I can't hear it well enough to play. 
palm mute the low C and go crazy I guess.

Riff C (Repeat)
c|---------------------------------------------------------------------------|
G|-5/6-5/6-5/6-5/6-----------------------------------------------------------|
E|-8/9-8/9-8/9-8/9-----------------------------------------------------------|
B|-----------------2-2-------------------------------------------------------|
F|-----------------2-2-------------------------------------------------------|
C|-----------------0-0-------------------------------------------------------|
                   . .
Riff D
c|---------------------------------------------------------------------------|
G|---------------------------------------------------------------------------|
E|---------------------------------------------------------------------------|
B|-------------3-------------8-11--------------------------------------------|
F|-5\4-5/4-5/4-1-5/4-5/4-5/4-6-9---------------------------------------------|
C|-3\2-3\2-3\2---3/2-3/2-3/2-------------------------------------------------|

There's tremolo riff somewhere around this area of the song but I don't have that either.

Pre-solo (Repeat)
c|---------------------------------------------------------------------------|
G|---------------------------------------------------------------------------|
E|---------------------------------------------------------------------------|
B|---------------------------------------------------------------------------|
F|-4--------3--------1--------3--------1-------3---------4-------3--------1--|
C|--22222222-22222222-33333333-33333333-3333333-222222222-2222222-22222222---|

c|---------------------------------------------------------------------------|
G|---------------------------------------------------------------------------|
E|---------------------------------------------------------------------------|
B|----------3----------------------------------------------------------------|
F|--------5-1----------------------------------------------------------------|
C|-333333-3------------------------------------------------------------------|

Solo (Please note that I use low gauge strings so my bends may sound different then yours)
c|-17b20-15b17--15-14-15~-15-14----------------------------------------------|
G|-----------------------------15----------15--15-----------15b17-15~-12-14--|
E|-------------------------------14----------14--14b16-14~-------------------|
B|---------------------------------16----------------------------------------|
F|-----------------------------------17/19-----------------------------------|
C|---------------------------------------------------------------------------|


c|---12-14-15-14-12----------------------------------------------------------|
G|-15---------------15-14-12-------------------------------------------------|
E|---------------------------14-12-11----------------------------------------|
B|-----------------------------------14-12-11----------------14/16/17/19\17--|
F|-------------------------------------------14-12-----------x--x--x--x--x---|
C|-------------------------------------------------15-14-12~-12/14/15/17\15--|

c|---------------------------------------------------------------------------|
G|---------------------------------------------------------12-14-15----------|
E|--------------------------------11-12-14--------11-12-14---------11-12-14--|
B|16--------------11-----11-12-14---------11-12-14---------------------------|
F|x----------12-14--12-14----------------------------------------------------|
C|14-12-14-15----------------------------------------------------------------|

c|-------------------------------------------------------------------------------------|
G|-12-14-15b7--------------------------------------------------------------------------|
E|-------------------------------------------------------------------------------------|
B|-------------------------------------------------------------------------------------|
F|-------------------------------------------------------------------------------------|
C|-------------------------------------------------------------------------------------|


| /  slide up
| \  slide down
| h  hammer-on
| p  pull-off
| ~  vibrato
| +  harmonic
| x  Mute note
===============================================================================
Добавлено: 23.05.2012
Другие материалы по этой песне:
  • Аккорды и текст

Страница создана 23.05.2012
http://primanota.ru/akercocke/axiom-chords.htm
Привет, Гость.
Предлагаем пройти революционный курс по гитаре.
Подарок от PrimaNota.Ru, забирай!