PrimaNota.ru - самый крупный в мире бесплатный архив песенных текстов, аккордов, табулатур и нот


Akela - Menny A Pokolban - таба, видео

Регистрация Запомнить меня
Войти через:  Facebook Google Twitter Vk Yandex Mail.ru

Akela - Menny A Pokolban - таба, видео

Печатать
Просмотров: 145
Akela
Menny a Pokolba(n)
Fejetlenség
Tuning: DGCFAD

Intro
 |--------------------------------|
 |--------------------------------|
 |--------------------------------|
 |--------------------------------|
 |--------------------------------|
 |---0-6-0-6-0-----0-6-0-6-0------|

 ---------------------------------|
 ---------------------------------|
 ---------------------------------|
 ----------------------------5/21-|
 ---------------------------------|
 ----0-12-0-11--0-6-0-6-0---------|


 |--------------------------------|
 |--------------------------------|
 |--------------------------------|
 |--------------------------------|
 |--------------------------------|
 |---0-6-0-6-0-----0-6-0-6-0------|

 ----------------------------------|
 ----------------------------------|
 ----------------------------------|
 ----------------------------------|
 -----------------------------3--3-|
 ----0-12-0-11--0-6-0-6-0-----1001-|
PM                           |----|
Verse (Bass Riff)

Verse
 |---------------------------------------|
 |---------------------------------------|
 |-7-7-7-7-------------------------------|
 |-7-7-7-7------8-8-8-5-5-5-5-7-8-7-5----|
 |-5-5-5-5------8-8-8-5-5-5-5-7-8-7-5----|
 |----------0-0-6-6-6-3-3-3-3-5-6-5-3----|
PM         |---|           |-------------|

 |---------------------------------------|
 |---------------------------------------|
 |-7-7-7-7-------------------------------|
 |-7-7-7-7------8-8-8-5-5-5-5-7-8-7-7----|
 |-5-5-5-5------8-8-8-5-5-5-5-7-8-7-7----|
 |----------0-0-6-6-6-3-3-3-3-5-6-5-5----|
PM         |---|           |-------------|

Repeat: Intro

Bridge
 |----------------------------------|3x
 |----------------------------------|
 |----------------------------------|
 |----------------------------------|
 |-2-2-2-4-4-4-5-5-5-6-6-5-5-4-4----|
 |-0-0-0-2-2-2-3-3-3-4-4-3-3-2-2----|
PM|---------------------------------|

 |----------------------------------|
 |----------------------------------|
 |----------------------------------|
 |----------------------------------|
 |-2-2-2-4-4-4-5-5-5-6-6-5-5-4-4----|
 |-0-0-0-2-2-2-3-3-3-4-4-3-3-2-2----|
PM  |---| |---| |---| |-| |-| |-----|

 |--------------------------------|
 |--------------------------------|
 |--------------------------------|
 |--------------------------------|
 |-2-2-2-4-4-4-5-5-5-6-6-5-5-4-4--|
 |-0-0-0-2-2-2-3-3-3-4-4-3-3-2-2--|

Solo
 |------------------------------------------|
 |------------------------------------------|
 |------------------------------------------|
 |------------------------------------------|
 |-7------7------7------7-------10-8-7-8----|
 |---0000---0000---0000---0000--------------|
PM  |----| |----| |----| |------------------|
 |------------------------------------------|
 |------------------------------------------|
 |------------------------------------------|
 |------------------------------------------|
 |-5------6------8--------------------------|
 |-3-333334-444446-66666--------------------|
PM  |----| |----| |-------------------------|
 |------------------------------------------|
 |------------------------------------------|
 |------------------------------------------|
 |------------------------------------------|
 |------------------------------------------|
 |---0-6-0-6-0-----0-6-0-6-0----------------|

 ---------------------------------|
 ---------------------------------|
 ---------------------------------|
 ----------------------------5/21-|
 ---------------------------------|
 ----0-12-0-11--0-6-0-6-0---------|

Verse
 |---------------------------------------|
 |---------------------------------------|
 |-7-7-7-7-------------------------------|
 |-7-7-7-7------8-8-8-5-5-5-5-7-8-7-5----|
 |-5-5-5-5------8-8-8-5-5-5-5-7-8-7-5----|
 |----------0-0-6-6-6-3-3-3-3-5-6-5-3----|
PM         |---|           |-------------|

 |---------------------------------------|
 |---------------------------------------|
 |-7-7-7-7-------------------------------|
 |-7-7-7-7------8-8-8-5-5-5-5-7-8-7-7----|
 |-5-5-5-5------8-8-8-5-5-5-5-7-8-7-7----|
 |----------0-0-6-6-6-3-3-3-3-5-6-5-5----|
PM         |---|           |-------------|

|----------------------------------|
 |---------------------------------|
 |---------------------------------|
 |---------------------------------|
 |---------------------------------|
 |---0-6-0-6-0-----0-6-0-6-0-------|

 ---------------------------------|
 ---------------------------------|
 ---------------------------------|
 ----------------------------5/21-|
 ---------------------------------|
 ----0-12-0-11--0-6-0-6-0---------|


 |--------------------------------|
 |--------------------------------|
 |--------------------------------|
 |--------------------------------|
 |--------------------------------|
 |---0-6-0-6-0-----0-6-0-6-0------|

 ----------------------------------|
 ----------------------------------|
 ----------------------------------|
 ----------------------------------|
 -----------------------------3--3-|
 ----0-12-0-11--0-6-0-6-0-----1001-|
PM                           |----|

 |----------------------------------|
 |----------------------------------|
 |----------------------------------|
 |----------------------------------|
 |----------------------------------|
 |---0066006600------0066006600-----|
PM  |-------------------------------|

 ------------------------------------|
 ------------------------------------|
 ------------------------------------|
 ----------------------------5/21----|
 ------------------------------------|
 ----0-12-0-11--0066006600-----------|
PM             |---------------------|

 |----------------------------------|
 |----------------------------------|
 |----------------------------------|
 |----------------------------------|
 |----------------------------------|
 |---0066006600------0066006600-----|
PM  |-------------------------------|

 ------------------------------------|
 ------------------------------------|
 ------------------------------------|
 ------------------------------------|
 ----------------------------3--3----|
 ----0-12-0-11--0066006600---1001----|
PM             |---------------------|
Добавлено: 08.03.2012
Другие материалы по этой песне:
  • Аккорды и текст

Страница создана 08.03.2012
http://primanota.ru/akela/menny-a-pokolban-chords.htm
Привет, Гость.
Предлагаем пройти революционный курс по гитаре.
Подарок от PrimaNota.Ru, забирай!