PrimaNota.ru - самый крупный в мире бесплатный архив песенных текстов, аккордов, табулатур и нот


Akeboshi - Close My Door - текст песни, таба, видео

Регистрация Запомнить меня
Войти через:  Facebook Google Twitter Vk Yandex Mail.ru

Akeboshi - Close My Door - текст песни, таба, видео

Печатать
Просмотров: 170
this is the first tab i have posted.
since no-one bothered to tab this song i will do what i think it sounds like :)
for effects i used DELAY(tape echo) and TRAMELO 
capo: 5
tuning:standard

IM NOT SURE HOW MANY TIMES YOU ARE SUPPOSED TO PLAY EACH PART, JUST PLAY IT WITH 
THE SONG AND YOU WILL SEE!!!
GOODLUCK!

(this is intro Verse1 and Verse2)
E|----------0-----------------|
B|-----2-1-------1-2-1----1-2-|
G|---------2-----------2------|
D|----------------------------|
A|----------------------------|
E|----------------------------|

(this goes from intro to the end of verse 2)-(0.00-1.28)

then its this part:

E|-----------------|
B|-2~/6~---2~\1~---|
G|-----------------|
D|-----------------|
A|-----------------|
E|-----------------|

(this goes from 1.28-2.12)


(then its verse 3)
E|----------0-----------------|
B|-----2-1-------1-2-1----1-2-|
G|---------2-----------2------|
D|----------------------------|
A|----------------------------|
E|----------------------------|
(this goes from 2.12-2.31)

then its this part again:

E|-----------------|
B|-2~/6~---2~\1~---|
G|-----------------|
D|-----------------|
A|-----------------|
E|-----------------|
(this goes from 2.31-2.40)

ending

E|----------0-----------------|
B|-----2-1-------1-2-1----1-2-|
G|---------2-----------2------|
D|----------------------------|
A|----------------------------|
E|----------------------------|
(this goes from 2.40-3.05)

Intro

Verse 1
I close my door, I close my eyes, I close my mind 
Coz I don't wanna know 
I close my door, I close my eyes, I close my mind 
Coz I don't wanna know, don't wanna know

Verse 2
I close my door, I close my eyes, I close my mind 
Coz I don't wanna know 
I close my door, I close my eyes, I close my mind 
Coz I don't wanna know, don't wanna know

Verse 3
I close my door, I close my eyes, I close my mind 
Coz I don't wanna know 
I close my door, I close my eyes, I close my mind 
Coz I don't wanna know, don't wanna know

guitar legend:
~ = wobble or bend
/ = slide up
\ = slide down

hope you enjoy this tab :) my parents say the song is beautiful
i figured the tune out by ear
if you have queries about this tab email me at Jordanvdm@hotmail.co.za
HAVE FUN!
AKEBOSHI RULES!!!
Добавлено: 26.09.2013
Другие материалы по этой песне:
  • Аккорды и текст

Страница создана 01.08.2013
http://primanota.ru/akeboshi/close-my-door-chords.htm
Привет, Гость.
Предлагаем пройти революционный курс по гитаре.
Подарок от PrimaNota.Ru, забирай!