PrimaNota.ru - самый крупный в мире бесплатный архив песенных текстов, аккордов, табулатур и нот


Akasha - Palacio De Cristal - таба, видео

Регистрация Запомнить меня
Войти через:  Facebook Google Twitter Vk Yandex Mail.ru

Akasha - Palacio De Cristal - таба, видео

Печатать
Просмотров: 114
AKASHA
  PALACIO DE CRISTAL (2007)  
  VERSION EN VIVO


  * La guitarra de Emma debe ir afinada con la sexta cuerda en RE (Drop-D)

  

  |------------------|
  |***INTRODUCCION***|
  |------------------|
 
 |                                                                               |
 |  (GUITARRA EMMA)                                                              |
 |                                                                               | 
 | 1||------------------------------------------------------------------------|| |
 | 2||* -------------------------------------------------------------------- *|| |
 | 3||* -------------------------------------------------------------------- *|| | (8 Veces)
 | 4||------------7--6----------7--6----------9--7--6-------9--7--6-----------|| |
 | 5||---------9--------7----9--------7----7-------------7--------------------|| |
 | 6||------------------------------------------------------------------------|| |
 |                                                                               | 
 |  (GUITARRA BOB)                                                               |
 |                                                                               | 
 | 1||------------------------------------------------------------------------|| |
 | 2||* -------------------------------------------------------------------- *|| |
 | 3||* -------------------------------------------------------------------- *|| | (6 Veces)
 | 4||------------11--9---------11--9---------12--11--9-----12--11--9---------|| |
 | 5||--------12--------11--12--------11---11------------11-------------------|| |
 | 6||------------------------------------------------------------------------|| |



  |-----------|
  |***VERSO***|
  |-----------|

 |                                                                                  |
 | (GUITARRA EMMA)                                                                  |
 |                                                                                  |
 | 1||---------------------------------------------------------------------------|| |
 | 2||*-------------------------------------------------------------------------*|| |
 | 3||*-------------------------------------------------------------------------*|| | (10 Veces)
 | 4||--------------------0-------------0------------2---------------------------|| |
 | 5||--------------4--------4-------------4------4-----4------------------------|| |
 | 6||---------4--4-----4--------4----0---------2--------------------------------|| |
 |                                                                                  |
 | (GUITARRA BOB [Entra en la Tercera Vuelta])                                      |
 |                                                                                  |
 | 1||---------------------------------------------------------------------------|| |
 | 2||*-------------------------------------------------------------------------*|| |
 | 3||*-----------------------14--13--14~-------------------------14--16--16^---*|| | (2 Veces)
 | 4||----14--16~-----14--16------------------14--16~-----14--16-----------------|| |
 | 5||---------------------------------------------------------------------------|| |
 | 6||---------------------------------------------------------------------------|| |




  |-------------|
  |***PRECORO***|
  |-------------|

 |                                                                  | 
 |  (GUITARRA EMMA)                                                 | 
 |                                                                  | 
 | 1||-----------------------------------------------------------|| |
 | 2||* ------------------------------------------------------- *|| |
 | 3||* ------------1--2--1-------------------4--2--1---------- *|| | (4 Veces)
 | 4||-----------4-----------2-------2--2--2---------------------|| |
 | 5||-----------------------------------------------------------|| |
 | 6||-----------------------------------------------------------|| |
 |                                                                  | 
 |  (GUITARRA BOB)                                                  |
 |                                                                  | 
 | 1||-----------------------------------------------------------|| |
 | 2||* ------------------------------------------------------- *|| |
 | 3||* ------------4--6--4-------------------7--6--4---------- *|| | (4 Veces)
 | 4||-----------4-----------6-------2--2--2---------------------|| |
 | 5||-----------------------------------------------------------|| |
 | 6||-----------------------------------------------------------|| |




  |----------|
  |***CORO***|
  |----------|

 |                                                                                 |
 | (GUITARRA EMMA)                                                                 |
 |                                                                                 |
 | 1||--------------------------------------------------------------------------|| |
 | 2||* ---------------------------------------------------------------------- *|| |
 | 3||* ----------------------7----7------------------------------------------ *|| | (8 VECES)
 | 4||---------4----4--4------7----7-----2-------2--2--2--2--2--2---------------|| |
 | 5||---------4----4--4------5----5-----2-------2--2--2--2--2--2---------------|| |
 | 6||---------4----4--4------0----0-----2-------2--2--2--2--2--2---------------|| |
 |                                                                                 |
 |                                                                                 |
 | (GUITARRA BOB [Palm Muted])                                                     |
 |                                                                                 |
 | 1||--------------------------------------------------------------------------|| |
 | 2||* ---------------------------------------------------------------------- *|| |
 | 3||* ---------------------------------------------------------------------- *|| | (4 VECES)
 | 4||------------7--6----------7--6----------9--7--6-------9--7--6-------------|| |
 | 5||---------9--------7----9--------7----7-------------7----------------------|| |
 | 6||--------------------------------------------------------------------------|| |
 |                                                                                 |
 |                                                                                 |
 | 1||--------------------------------------------------------------------------|| |
 | 2||* ---------------------------------------------------------------------- *|| |
 | 3||* ---------------------------------------------------------------------- *|| | (4 VECES)
 | 4||------------11--9---------11--9---------12--11--9-----12--11--9-----------|| |
 | 5||--------12--------11--12--------11---11------------11---------------------|| |
 | 6||--------------------------------------------------------------------------|| |
 |                                                                                 |




  |-------------------|
  |***SEGUNDO VERSO***|
  |-------------------|

 |                                                                                  |
 | (GUITARRA BOB [Entra en la Segunda Vuelta])                                      |
 |                                                                                  |
 | 1||---------------------------------------------------------------------------|| |
 | 2||*-------------------------------------------------------------------------*|| |
 | 3||*-----------------------14--13--14~-------------------------14--16--16^---*|| |
 | 4||----14--16~-----14--16------------------14--16~-----14--16-----------------|| |
 | 5||---------------------------------------------------------------------------|| |
 | 6||---------------------------------------------------------------------------|| |




  |----------|
  |***SOLO***|
  |----------|
 
 |                                                                               |
 |  (GUITARRA EMMA)                                                              |
 |                                                                               | 
 | 1||------------------------------------------------------------------------|| |
 | 2||* -------------------------------------------------------------------- *|| |
 | 3||* ----------------------7----7---------------------------------------- *|| | 
 | 4||---------4----4--4------7----7-----2-------2--2--2--2--2--2-------------|| |
 | 5||---------4----4--4------5----5-----2-------2--2--2--2--2--2-------------|| |
 | 6||---------4----4--4------0----0-----2-------2--2--2--2--2--2-------------|| |
 |                                                                               | 
 |  (GUITARRA BOB)                                                               |
 |                                                                               | 
 | 1|----14-----14--14---------------------------------------------------------| |
 | 2|----17^19------17^19^17p14----------------------14--15--14------14--------| |
 | 3|----------------------------16 ~ -------14--16--------------16------------| |
 | 4|--------------------------------------------------------------------------| |
 | 5|--------------------------------------------------------------------------| |
 | 6|--------------------------------------------------------------------------| |
 |                                                                               | 
 | 1|-----------------------------14\------------------------------------------| |
 | 2|----14-----14--14------------14-\-----------------------------------------| |
 | 3|----16^18------16^18^16--14-----------------------------------------------| |
 | 4|--------------------------------------------------------------------------| |
 | 5|--------------------------------------------------------------------------| |
 | 6|--------------------------------------------------------------------------| |
 |                                                                               | 
 | 1|--------------------------------------------------------------------------| |
 | 2|--------14h17p14------14h17p14------14h17p14-------14h17p14---------------| |
 | 3|----16^-----------16^-----------16^-----------16^-------------------------| |
 | 4|--------------------------------------------------------------------------| |
 | 5|--------------------------------------------------------------------------| |
 | 6|--------------------------------------------------------------------------| |
 |                                                                               | 
 | 1|----------------------------------------------17--14----------------------| |
 | 2|--------14h17p14---17p14--17p14--17^ ~ ---------------17--14------14------| |
 | 3|----16^-------------------------------------------------------16----------| |
 | 4|--------------------------------------------------------------------------| |
 | 5|--------------------------------------------------------------------------| |
 | 6|--------------------------------------------------------------------------| |
 |                                                                               | 
 | 1|--------------------------------------------------------------------------| |
 | 2|---17--14-----------------------------------------------------------------| |
 | 3|-----------16--14------14--16--14-----------------------------------------| |
 | 4|-------------------16--------------16--14------14--16--14------16 \-------| |
 | 5|-------------------------------------------16--------------16-------------| |
 | 6|--------------------------------------------------------------------------| |




  |-----------|
  |***FINAL***|
  |-----------|

 |                                                                               |
 |  (GUITARRA EMMA)                                                              |
 |                                                                               | 
 | 1||------------------------------------------------------------------------|| |
 | 2||* -------------------------------------------------------------------- *|| |
 | 3||* -------------------------------------------------------------------- *|| | (12 Veces)
 | 4||------------7--6----------7--6----------9--7--6-------9--7--6-----------|| |
 | 5||---------9--------7----9--------7----7-------------7--------------------|| |
 | 6||------------------------------------------------------------------------|| |
 |                                                                               | 
 |  (GUITARRA BOB [Comienza en la Tercera Vuelta])                               |
 |                                                                               | 
 | 1||------------------------------------------------------------------------|| |
 | 2||* -------------------------------------------------------------------- *|| |
 | 3||* -------------------------------------------------------------------- *|| | (10 Veces)
 | 4||------------11--9---------11--9---------12--11--9-----12--11--9---------|| |
 | 5||--------12--------11--12--------11---11------------11-------------------|| |
 | 6||------------------------------------------------------------------------|| |



                               WWW.AKASHAROCK.COM
Добавлено: 17.06.2012
Другие материалы по этой песне:

Страница создана 11.05.2012
http://primanota.ru/akasha/palacio-de-cristal-chords.htm
Привет, Гость.
Предлагаем пройти революционный курс по гитаре.
Подарок от PrimaNota.Ru, забирай!