PrimaNota.ru - самый крупный в мире бесплатный архив песенных текстов, аккордов, табулатур и нот


Akasha - Descriptar - таба, видео

Регистрация Запомнить меня
Войти через:  Facebook Google Twitter Vk Yandex Mail.ru

Akasha - Descriptar - таба, видео

Печатать
Просмотров: 107
  DESCRIPTAR   
  

  

  |------------------|
  |***INTRODUCCION***|
  |------------------|
 
 |                                                                               |
 |  (GUITARRA EMMA)                                                              |
 |                                                                               | 
 | 1||------------------------------------------------------------------------|| |
 | 2||* -------------------------------------------------------------------- *|| |
 | 3||* -------------------------------------------------------------------- *|| |
 | 4||----9----9----9--9--5--5--5----5--5--7----7----7--7--4--4--4----4--4----|| |
 | 5||----9----9----9--9--5--5--5----5--5--7----7----7--7--4--4--4----4--4----|| |
 | 6||----7----7----7--7--3--3--3----3--3--5----5----5--5--2--2--2----2--2----|| |
 |                                                                               | 
 |  (GUITARRA BOB)                                                               |
 |                                                                               | 
 | 1|--------------------------------------------------------------------------| |
 | 2|--------------------------------------------------------------------------| |
 | 3|---4 ~ ~ ~ ---4--6--7----6--4-----/6 ~ ~ ~ -------------------------------| |
 | 4|--------------------------------7-----------------------------------------| |
 | 5|--------------------------------------------------------------------------| |
 | 6|--------------------------------------------------------------------------| |



  |-----------|
  |***VERSO***|
  |-----------|

 |                                                                                     | 
 |  (GUITARRA EMMA)                                                                    | 
 |                                                                                     | 
 | 1||-----------------------------2-2-2-2----||--------------------------2h3p2------| |
 | 2||* --3-------3-------3--------3-------- *||--3-------3-------3-------------3----| |
 | 3||* --4-4-4-4-4-4-4-4-4-4-4-4----------- *||--4-4-4-4-4-4-4-4-4-4-4-4---------4--| |
 | 4||----------------------------------------||-------------------------------------| |
 | 5||----------------------------------------||-------------------------------------| |
 | 6||----------------------------------------||-------------------------------------| |
 |                                                                                     | 
 |  (GUITARRA BOB)                                                                     |
 |                                                                                     | 
 | 1|--------------------------------------------------------------------------------| |
 | 2|--------------------------------------------------------------------------------| |
 | 3|------------------------------------------2-------------------------------------| |
 | 4|----9------------------5------------------2------------------4------------------| |
 | 5|----9------------------5------------------0------------------4------------------| |
 | 6|----7------------------3-------------------------------------2------------------| |



  |----------|
  |***CORO***|
  |----------|

 |                                                                                 |
 | (GUITARRA EMMA)                                                                 |
 |                                                                                 |
 | 1||--------------------------------------------------------------------------|| |
 | 2||* ---------------------------------------------------------------------- *|| |
 | 3||* ---------------------------------------------------------------------- *|| | (2 VECES)
 | 4||----9----9----9--9--5--5--5----5--5--7----7-------------------------------|| |
 | 5||----9----9----9--9--5--5--5----5--5--7----7-----/ 1----2--4--1----2--4----|| |
 | 6||----7----7----7--7--3--3--3----3--3--5----5----/--------------------------|| |
 |                                                                                 |
 | (GUITARRA BOB)                                                                  |
 |                                                                                 |
 | 1||--------------------------------------------------------------------------|| |
 | 2||* ---------------------------------------------------------------------- *|| |
 | 3||* --4----4----4--4------------------------------------------------------ *|| | (2 VECES)
 | 4||----4----4----4--4--5--5--5----5--5--7----7-------------------------------|| |
 | 5||----2----2----2--2--5--5--5----5--5--7----7-----/ 1----2--4--1----2--4----|| |
 | 6||----2----2----2--2--3--3--3----3--3--5----5----/--------------------------|| |
 |                                                                                 |
 |                                                                                 |
 |  (GUITARRA EMMA Y BOB)                                                          |
 |                                                                                 |
 | 1||------------------------------------------------------------------------||   |
 | 2||* -------------------------------------------------------------------- *||   |
 | 3||* -------------------------------------------------------------------- *||   |
 | 4||----9----9----9--9--5--5--5----5--5--7----7----7--7--4--4--4----4--4----||   |
 | 5||----9----9----9--9--5--5--5----5--5--7----7----7--7--4--4--4----4--4----||   |
 | 6||----7----7----7--7--3--3--3----3--3--5----5----5--5--2--2--2----2--2----||   |
 |                                                                                 |
 |                                                                                 |
 | 1||--------------------------------------------------------------------------|| |
 | 2||--------------------------------------------------------------------------|| |
 | 3||--------------------------------------------------------------------------|| |
 | 4||----5----5----5--5--7----7----7--7---9--9----9--9----9--9----9--9----9----|| |
 | 5||----5----5----5--5--7----7----7--7---9--9----9--9----9--9----9--9----9----|| |
 | 6||----3----3----3--3--5----5----5--5---7--7----7--7----7--7----7--7----7----|| |



  |-------------------|
  |***SEGUNDO VERSO***|
  |-------------------|

 |                                                                                     | 
 |  (GUITARRA BOB)                                                                     |
 |                                                                                     | 
 | 1|--------------------------------------------------------------------------------| |
 | 2|--------------------------------------------------------------------------------| |
 | 3|------------------------------------------2-2-2-2-2-----------------------------| |
 | 4|----9-9-9-9-9----------5-5-5-5-5----------2-2-2-2-2----------4-4-4-4-4----------| |
 | 5|----9-9-9-9-9----------5-5-5-5-5----------0-0-0-0-0----------4-4-4-4-4----------| |
 | 6|----7-7-7-7-7----------3-3-3-3-3-----------------------------2-2-2-2-2----------| |
 |                                                                                     | 
 |  (GUITARRA EMMA)                                                                    |
 |                                                                                     | 
 | 1|--------------------------------------------------------------------------------| |
 | 2|------3-2-3-2------------3-2-3-2------------3-2-3-2------------3-2-3-5-3-2-3----| |
 | 3|----4---------4-2-4--------------4-2-4----2---------4-2-4-----------------------| |
 | 4|-----------------------5-------------------------------------4------------------| |
 | 5|--------------------------------------------------------------------------------| |
 | 6|--------------------------------------------------------------------------------| |



  |------------|
  |***PUENTE***|
  |------------|

 |                                                                                     | 
 |  (GUITARRA EMMA)                                                                    |
 |                                                                                     | 
 | 1|--------------------------------------------------------------------------------| |
 | 2|--------------------------------------------------------------------------------| |
 | 3|--------------------------------------------------------------------------------| |
 | 4|--------4-----4---4------4-----4---4------4-----4---4------4---5-4-2-4----------| |
 | 5|----2-2---2-2---2---------------------0-0---0-0---0-----------------------------| |
 | 6|---------------------3-3---3-3---3---------------------2-2---2------------------| |
 |                                                                                     | 
 |  (GUITARRA BOB)                                                                     |
 |                                                                                     | 
 | 1|--------------------------------------------------------------------------------| |
 | 2|--------------------------------------------------------------------------------| |
 | 3|--------2-----2---2------2-----2---2------2-----2---2------2---4-2-0-2----------| |
 | 4|--------------------------------------------------------------------------------| |
 | 5|----2-2---2-2---2---------------------0-0---0-0---0-----------------------------| |
 | 6|---------------------3-3---3-3---3---------------------2-2---2------------------| |




 |                                                                                     | 
 |  (GUITARRA BOB)                                                                     |
 |                                                                                     | 
 | 1|-------------------------------2-------------------------------------5-3-2-0----| |
 | 2|------3-2-3-5-3-2-3------3-2-3---3-2-3------3-2-3-5-3-2-3------3-2-3------------| |
 | 3|----4------------------4------------------4------------------4------------------| |
 | 4|--------------------------------------------------------------------------------| |
 | 5|--------------------------------------------------------------------------------| |
 | 6|--------------------------------------------------------------------------------| |
 |                                                                                     | 
 |  (GUITARRA EMMA)                                                                    |
 |                                                                                     | 
 | 1|---------------------------------------------------------------------2-0--------| |
 | 2|------3-2-3-2------------3-2-3-2------------3-2-3-2------------3-2-3-----3-2----| |
 | 3|----4---------4-2-4--------------4-2-4----2---------4-2-4-----------------------| |
 | 4|-----------------------5-------------------------------------4------------------| |
 | 5|--------------------------------------------------------------------------------| |
 | 6|--------------------------------------------------------------------------------| |





  |----------|
  |***SOLO***|
  |----------|
 
 |                                                                               |
 |  (GUITARRA EMMA)                                                              |
 |                                                                               | 
 | 1||------------------------------------------------------------------------|| |
 | 2||* -------------------------------------------------------------------- *|| |
 | 3||* -------------------------------------------------------------------- *|| |
 | 4||----9----9----9--9--5--5--5----5--5--7----7----7--7--4--4--4----4--4----|| |
 | 5||----9----9----9--9--5--5--5----5--5--7----7----7--7--4--4--4----4--4----|| |
 | 6||----7----7----7--7--3--3--3----3--3--5----5----5--5--2--2--2----2--2----|| |
 |                                                                               | 
 |  (GUITARRA BOB)                                                               |
 |                                                                               | 
 | 1|--------------------------------------------------------------------------| |
 | 2|------------------------------------------------------/8-----7------------| |
 | 3|---4 ~ ~ ~ ---4--6--7----6--4-----6--------------------------------7 ~ ~ -| |
 | 4|--------------------------------7---4 ~ ~ ~ ------------------------------| |
 | 5|--------------------------------------------------------------------------| |
 | 6|--------------------------------------------------------------------------| |
 |                                                                               | 
 | 1|--------------------------------------------------------------------------| |
 | 2|--------8--7--7--8-------------------8---7--------------------------------| |
 | 3|---7/9--------------9 ~ ~ ~ -----------9---7-7-9-7------------------------| |
 | 4|---------------------------------------------------9-9 ~ ~ ~ -------------| |
 | 5|--------------------------------------------------------------------------| |
 | 6|--------------------------------------------------------------------------| |
 |                                                                               | 
 | 1|--------------------------------------------------------------------------| |
 | 2|--------------------------------------------10-8-7---7--------------------| |
 | 3|-----------6--7--9--6--7--7 ~ ~ ~ -----------------9---9-6-7--------------| |
 | 4|--------9----------------------------------------------------9 ~ ~ ~ -----| |
 | 5|--------------------------------------------------------------------------| |
 | 6|--------------------------------------------------------------------------| |
 |                                                                               | 
 | 1|--------------------------------------------------------------------------| |
 | 2|-------------------------7----7-----7----7-----7----7-----7----7-----7----| |
 | 3|------6-7 ~ ~ --/9 ~ ~ --9^11-9^11--9^11-9^11--9^11-9^11--9^11-9^11--9^11-| |
 | 4|---/9---------------------------------------------------------------------| |
 | 5|--------------------------------------------------------------------------| |
 | 6|--------------------------------------------------------------------------| |




  |-----------|
  |***FINAL***|
  |-----------|

 |                                                                                 |
 |  (GUITARRA EMMA)                                                                |
 |                                                                                 |
 | 1||------------------------------------------------------------------------||   |
 | 2||------------------------------------------------------------------------||   |
 | 3||------------------------------------------------------------------------||   |
 | 4||----9----9----9--9--5--5--5----5--5--7----7----7--7--4--4--4----4--4----||   |
 | 5||----9----9----9--9--5--5--5----5--5--7----7----7--7--4--4--4----4--4----||   |
 | 6||----7----7----7--7--3--3--3----3--3--5----5----5--5--2--2--2----2--2----||   |
 |                                                                                 |
 |                                                                                 |
 | 1||--------------------------------------------------------------------------|| |
 | 2||--------------------------------------------------------------------------|| |
 | 3||--------------------------------------------------------------------------|| |
 | 4||----5----5----5--5--7----7----7--7---9--9----9--9----9--9----9--9----9----|| |
 | 5||----5----5----5--5--7----7----7--7---9--9----9--9----9--9----9--9----9----|| |
 | 6||----3----3----3--3--5----5----5--5---7--7----7--7----7--7----7--7----7----|| |
 |                                                                                 |
 |                                                                                 |
 | 1||--------------------------------------------------------------------------|| |
 | 2||--------------------------------------------------------------------------|| |
 | 3||--------------------------------------------------------------------------|| |
 | 4||----5----5----5--5--7----7----7--7---9--9----9--9----9--9----9--9----9----|| |
 | 5||----5----5----5--5--7----7----7--7---9--9----9--9----9--9----9--9----9----|| |
 | 6||----3----3----3--3--5----5----5--5---7--7----7--7----7--7----7--7----7----|| |
 |                                                                                 |
 |                                                                                 |
 |                                                                                 |
 |  (GUITARRA B0B)                                                                 |
 |                                                                                 |
 | 1||------------------------------------------------------------------------||   |
 | 2||------------------------------------------------------------------------||   |
 | 3||------------------------------------------------------------------------||   |
 | 4||----9----9----9--9--5--5--5----5--5--7----7----7--7--4--4--4----4--4----||   |
 | 5||----9----9----9--9--5--5--5----5--5--7----7----7--7--4--4--4----4--4----||   |
 | 6||----7----7----7--7--3--3--3----3--3--5----5----5--5--2--2--2----2--2----||   |
 |                                                                                 |
 |                                                                                 |
 | 1||--------------------------------------------------------------------------|| |
 | 2||--------------------------------------------------------------------------|| |
 | 3||-----------------------------------------------------------------------6--|| |
 | 4||----5----5----5--5--7----7----7--7---9--9----9--9----9--9----9--9----9----|| |
 | 5||----5----5----5--5--7----7----7--7---9--9----9--9----9--9----9--9---------|| |
 | 6||----3----3----3--3--5----5----5--5---7--7----7--7----7--7----7--7---------|| |
 |                                                                                 |
 |                                                                                 |
 | 1||---------------------------------------------------------------------7-9--|| |
 | 2||--------------------------------------------------------------------------|| |
 | 3||----7------------9--6------------6---11-11---11-11---11-11---11-11--------|| |
 | 4||--------------------------------------------------------------------------|| |
 | 5||--------------------------------------------------------------------------|| |
 | 6||--------------------------------------------------------------------------|| |
 |                                                                                 |
 |                                                                                 |
 | 1||----10----10/12-----------------------------------------------------------|| |
 | 2||----------------/14----14H15----------------------------------------------|| |
 | 3||-------------------------------16-16---16-16---16-16---16-16---16-16-16\--|| |
 | 4||--------------------------------------------------------------------------|| |
 | 5||--------------------------------------------------------------------------|| |
 | 6||--------------------------------------------------------------------------|| |






Добавлено: 12.06.2012
Другие материалы по этой песне:
  • Аккорды и текст

Страница создана 12.06.2012
http://primanota.ru/akasha/descriptar-chords.htm
Привет, Гость.
Предлагаем пройти революционный курс по гитаре.
Подарок от PrimaNota.Ru, забирай!