PrimaNota.ru - самый крупный в мире бесплатный архив песенных текстов, аккордов, табулатур и нот


Akasha - Cerca Del Sol - таба, видео

Регистрация Запомнить меня
Войти через:  Facebook Google Twitter Vk Yandex Mail.ru

Akasha - Cerca Del Sol - таба, видео

Печатать
Просмотров: 92
Уроки эстрадного вокала в Санкт-Петербурге
Cerca del Sol
Akasha

Tab By V4r0


Guitarra de Emma afinada en Do (C F A# D# G  C)


Simbología:

x  =  Nota muerta
PM =  Palm Mute
/  =  Slide
~  =  Vibrato
p  =  Pull Off
^  =  Bend

  |------------------|
  |***INTRODUCCION***|
  |------------------|

|
|(GUITARRA EMMA) Clean Guitar (Esta Parte en afinación Standart(E A D G B e))
|
| 1||---x---x--x-x---x-x--x--x-x-x---x--x-x---x-x--x--x-x---||
| 2||---1---1--1-1---1-1--1--1-1-1---1--1-1---1-1--1--1-1---||
| 3||---2---2--2-2---2-2--2--2-2-0---0--0-0---0-0--0--0-0---||  (3 Veces)
| 4||---3---3--3-3---3-3--3--3-3-2---2--2-2---2-2--2--2-2---||
| 5||---0---0--0-0---0-0--0--0-0-3---3--3-3---3-3--3--3-3---||
| 6||---x---x--x-x---x-x--x--x-x-x---x--x-x---x-x--x--x-x---||
|
| 1||---1----||
| 2||---1----||
| 3||---3----||
| 4||---3----||
| 5||---1----||
| 6||---1----||
|
|  (GUITARRA BOB)  Clean
|
| 1|----x--------------x-----------------x-----------------1----------------|
| 2|----1--------------1-----------------1-----------------1----------------|
| 3|----2--------------2-----------------0-----------------3----------------|
| 4|----3--------------3-----------------2-----------------3----------------|
| 5|----0--------------0-----------------3-----------------1----------------|
| 6|----x--------------x-----------------x-----------------1----------------|

                
|  (GUITARRA EMMA)
|
| 1||------------------------------------------------------------------------||
| 2||------------------------------------------------------------------------||
| 3||--4--4--4--4--4--4--4--4--4--4--4--4--4--4--4---------------------------||
| 4||--4--4--4--4--4--4--4--4--4--4--4--4--4--4--4---------------------------||
| 5||--2--2--2--2--2--2--2--2--2--2--2--2--2--2--2---------------------------||
| 6||--2--2--2--2--2--2--2--2--2--2--2--2--2--2--2---------------------------||
|     l---Crescendo y Palm Mute--------------------||
|
| 1||----------------------------------------------------------------------||
| 2||----------------------------------------------------------------------||
| 3||--9-9-9-9-9-9-9-9-9-9-9-9-9-9-9-9-9-9-9-9-9-9-9-9---------------------||
| 4||--9-9-9-9-9-9-9-9-9-9-9-9-9-9-9-9-9-9-9-9-9-9-9-9---------------------||
| 5||--7-7-7-7-7-7-7-7-7-7-7-7-7-7-7-7-7-7-7-7-7-7-7-7---------------------||
| 6||----------------------------------------------------------------------||
|
| 1||----------------------------------------------------------------------||
| 2||----------------------------------------------------------------------||
| 3||--9-9-9-9-9-9-9-9-9-9-9-9-9-9-9-9-9-9-9-9-9-9-9-9---------------------||
| 4||--9-9-9-9-9-9-9-9-9-9-9-9-9-9-9-9-9-9-9-9-9-9-9-9---------------------||
| 5||--6-6-6-6-6-6-6-6-6-6-6-6-6-6-6-6-6-6-6-6-6-6-6-6---------------------||
| 6||----------------------------------------------------------------------||
|
| 1||----------------------------------------------------------------------||
| 2||----------------------------------------------------------------------||
| 3||-4--4-4--4--4-4--4--4-4--4--4-4--4---4----4---------------------------||
| 4||-4--4-4--4--4-4--4--4-4--4--4-4--4---4----4---------------------------||
| 5||-2--2-2--2--2-2--2--2-2--2--2-2--2---2----2---------------------------||
| 6||-2--2-2--2--2-2--2--2-2--2--2-2--2---2----2---------------------------||
|       lPM-l    lPMl    lPMl    lPMl    lPMl
|
|  (GUITARRA BOB)
|
| 1||------------------------------------------------------------------------||
| 2||------------------------------------------------------------------------||
| 3||--5--5--5--5--5--5--5--5--5--5--5--5--5--5--5---------------------------||
| 4||--5--5--5--5--5--5--5--5--5--5--5--5--5--5--5---------------------------||
| 5||--3--3--3--3--3--3--3--3--3--3--3--3--3--3--3---------------------------||
| 6||--3--3--3--3--3--3--3--3--3--3--3--3--3--3--3---------------------------||
|      l---Crescendo y Palm Mute-------------------||
|
| 1||----------------------------------------------------------------------||
| 2||----------------------------------------------------------------------||
| 3||-9-9-9--10--12--7--9-10--5--7--9--5-5-5-7-7-7--9-9-9--10-10-10-10-9-7-||
| 4||-x-x-x--x---x---x--x-x---x--x--x--x-x-x-x-x-x--x-x-x--x--x--x--x--x-x-||
| 5||-7-7-7--8---10--5--7-8---3--5--7--3-3-3-5-5-5--7-7-7--8--8--8--8--7-5-||
| 6||----------------------------------------------------------------------||


 |-----------|
 |***VERSO***|
 |-----------|
 |
|  (GUITARRA EMMA)
|
| 1||----------------------------------------------------------------------||
| 2||----------------------------------------------------------------------||
| 3||------------------------4-4-------4--4-4------------------------------||
| 4||--2-2-2----2-2----------4-4-------4--4-4-----------4-4---------4--4-4-||
| 5||--2-2-2----2-2----------2-2-------2--2-2-----------4-4---------4--4-4-||
| 6||--0-0-0----0-0----------2-2-------2--2-2-----------2-2---------2--2-2--|

| 1||-----------------------------------------||
| 2||-----------------------------------------||
| 3||---------6-6---------4--4-4--------------||
| 4||---------6-6---------4--4-4--------------||
| 5||---------4-4---------2--2-2--------------||
| 6||---------4-4---------2--2-2--------------||

(Todo 2 Veces)

|
|  (GUITARRA BOB)
|
| 1||----------------------------------------------------------------------||
| 2||----------------------------------------------------------------------||
| 3||--5-5-------5--5-5---------------------------------7-7--------7--7-7--||
| 4||--5-5-------5--5-5--------5-5-------5--5-5---------7-7--------7--7-7--||
| 5||--3-3-------3--3-3--------5-5-------5--5-5---------5-5--------5--5-5--||
| 6||--3-3-------3--3-3--------3-3-------3--3-3---------5-5--------5--5-5--||
|
| 1||-----------------------------------------||
| 2||-----------------------------------------||
| 3||-----------------------------------------||
| 4||---------7-7---------5--5-5--------------||
| 5||---------7-7---------5--5-5--------------||
| 6||---------5-5---------3--3-3--------------||

(todo 2 veces)



 |-------------|
 |***PRECORO***|
 |-------------|
 |
|  (GUITARRA EMMA)
|
| 1||------------------------------------------------------------------------||
| 2||------------------------------------------------------------------------||
| 3||------------------------------------------------------------------------||
| 4||------------------------------------------------------------------------||
| 5||-7-7-7-7-7-7-7-7-7-7-7-7-7-2-2-2-2-2-2-2-2-2-2-2-2-2-4-4-4-4-4-4-4-4-4--||
| 6||-5-5-5-5-5-5-5-5-5-5-5-5-5-0-0-0-0-0-0-0-0-0-0-0-0-0-2-2-2-2-2-2-2-2-2--||
|    l--------------------------Palm Mute---------------------------------l||
|
| 1||----------------------------------------------------------------------||
| 2||----------------------------------------------------------------------||
| 3||-4--4-4--4--4-4--4--4-4--4--4-4--4---4----4---------------------------||
| 4||-4--4-4--4--4-4--4--4-4--4--4-4--4---4----4---------------------------||
| 5||-2--2-2--2--2-2--2--2-2--2--2-2--2---2----2---------------------------||
| 6||-2--2-2--2--2-2--2--2-2--2--2-2--2---2----2---------------------------||
|       lPM-l    lPMl    lPMl    lPMl    lPMl

|  (GUITARRA BOB)
|
| 1||----------------------------------------------------------------------||
| 2||----------------------------------------------------------------------||
| 3||--------------------------5--5-5-5--5-5-5-5---------7--7-7-7--7-7-7-7-||
| 4||-3--3-3-3--3-3-3-3--------5--5-5-5--5-5-5-5---------7--7-7-7--7-7-7-7-||
| 5||-3--3-3-3--3-3-3-3--------3--3-3-3--3-3-3-3---------5--5-5-5--5-5-5-5-||
| 6||-1--1-1-1--1-1-1-1--------3--3-3-3--3-3-3-3---------5--5-5-5--5-5-5-5-||
|
| 1||------------------------------||
| 2||------------------------------||
| 3||------------------------------||
| 4||-5-5-5--7-7-7--9-9-9-9-9-9-9--||
| 5||-x-x-x--x-x-x--x-x-x-x-x-x-x--||
| 6||-3-3-3--5-5-5--7-7-7-7-7-7-7--||

|----------|
|***CORO***|
|----------|
|
|  (GUITARRA EMMA)
|
|
| 1||----------------------------------------------------------------------||
| 2||----------------------------------------------------------------------||
| 3||----------------------------------4-4-4-4-4-4-4-4-4-4-4-4-4-4-4-4-----||
| 4||-2-2-2-2-2-2-2-2-2-2-2-2-2-2-2-2--4-4-4-4-4-4-4-4-4-4-4-4-4-4-4-4-----||
| 5||-2-2-2-2-2-2-2-2-2-2-2-2-2-2-2-2--2-2-2-2-2-2-2-2-2-2-2-2-2-2-2-2-----||
| 6||-0-0-0-0-0-0-0-0-0-0-0-0-0-0-0-0--2-2-2-2-2-2-2-2-2-2-2-2-2-2-2-2-----||
|
|
| 1||----------------------------------------------------------------------||
| 2||----------------------------------------------------------------------||
| 3||----------------------------------6-6-6-6-6-6-6-6-4-4-4-4-4-4-4-4-----||
| 4||-4-4-4-4-4-4-4-4-4-4-4-4-4-4-4-4--6-6-6-6-6-6-6-6-4-4-4-4-4-4-4-4-----||
| 5||-4-4-4-4-4-4-4-4-4-4-4-4-4-4-4-4--4-4-4-4-4-4-4-4-2-2-2-2-2-2-2-2-----||
| 6||-2-2-2-2-2-2-2-2-2-2-2-2-2-2-2-2--4-4-4-4-4-4-4-4-2-2-2-2-2-2-2-2-----||

(Todo 2 Veces)

|
|  (GUITARRA BOB)
|
| 1||-------------------------------------------||
| 2||-------------------------------------------||
| 3||-5---9--10-------7---9--10-----------------||
| 4||-x---x--x--5-----x---x--x---7----5---------||
| 5||-3---7--8--x-----5---7--8---x----x---------||
| 6||-----------3----------------5----3---------||
(Todo 2 veces)

  |---------------|
  |***PRECORO 2***|
  |---------------|

|
|
|  (GUITARRA EMMA)
|
|
| 1||----------------------------------------------------------------------||
| 2||----------------------------------------------------------------------||
| 3||-2--2-2-2--2-2-2-2----------------------------------------------------||
| 4||-2--2-2-2--2-2-2-2--------2--2-2-2--2-2-2-2---------4--4-4-4--4-4-4-4-||
| 5||-0--0-0-0--0-0-0-0--------2--2-2-2--2-2-2-2---------4--4-4-4--4-4-4-4-||
| 6||--------------------------0--0-0-0--0-0-0-0---------2--2-2-2--2-2-2-2-||
|
| 1||--------------------------------||
| 2||--------------------------------||
| 3||-6---6-6-6-4--4-4---4-4-4-4-----||
| 4||-6---6-6-6-4--4-4---4-4-4-4-----||
| 5||-4---4-4-4-2--2-2---2-2-2-2-----||
| 6||-4---4-4-4-2--2-2---2-2-2-2-----||
|
| 1||----------------------------------------------------------------------||
| 2||----------------------------------------------------------------------||
| 3||-2--2-2-2--2-2-2-2----------------------------------------------------||
| 4||-2--2-2-2--2-2-2-2--------2--2-2-2--2-2-2-2---------4--4-4-4--4-4-4-4-||
| 5||-0--0-0-0--0-0-0-0--------2--2-2-2--2-2-2-2---------4--4-4-4--4-4-4-4-||
| 6||--------------------------0--0-0-0--0-0-0-0---------2--2-2-2--2-2-2-2-||

| 1||------------------------------------------------||
| 2||------------------------------------------------||
| 3||-4--4-4--4--4-4--4--4-4--4--4-4--4---4----4-----||
| 4||-4--4-4--4--4-4--4--4-4--4--4-4--4---4----4-----||--(2 Veces)
| 5||-2--2-2--2--2-2--2--2-2--2--2-2--2---2----2-----||
| 6||-2--2-2--2--2-2--2--2-2--2--2-2--2---2----2-----||
|       lPM-l    lPMl    lPMl    lPMl    lPMl

|   (GUITARRA BOB)
|
| 1||----------------------------------------------------------------------||
| 2||----------------------------------------------------------------------||
| 3||--------------------------5--5-5-5--5-5-5-5---------7--7-7-7--7-7-7-7-||
| 4||-3--3-3-3--3-3-3-3--------5--5-5-5--5-5-5-5---------7--7-7-7--7-7-7-7-||
| 5||-3--3-3-3--3-3-3-3--------3--3-3-3--3-3-3-3---------5--5-5-5--5-5-5-5-||
| 6||-1--1-1-1--1-1-1-1--------3--3-3-3--3-3-3-3---------5--5-5-5--5-5-5-5-||

|
| 1||--------------------------------||
| 2||--------------------------------||
| 3||--------------------------------||
| 4||-7---7-7-7-5--5-5---5-5-5-5-----||
| 5||-7---7-7-7-5--5-5---5-5-5-5-----||
| 6||-5---5-5-5-3--3-3---3-3-3-3-----||

| 1||----------------------------------------------------------------------||
| 2||----------------------------------------------------------------------||
| 3||--------------------------5--5-5-5--5-5-5-5---------7--7-7-7--7-7-7-7-||
| 4||-3--3-3-3--3-3-3-3--------5--5-5-5--5-5-5-5---------7--7-7-7--7-7-7-7-||
| 5||-3--3-3-3--3-3-3-3--------3--3-3-3--3-3-3-3---------5--5-5-5--5-5-5-5-||
| 6||-1--1-1-1--1-1-1-1--------3--3-3-3--3-3-3-3---------5--5-5-5--5-5-5-5-||

1|--------------------------------------------------------------------------|
2|--------------------------------------------------------------------------|
3|--------------------------------------------------------------------------|
4|5-5-5-7-7-7-9-9-9-9-9-9-9-10-10-10-10-10-10-12-12-12-12-12-12-12-12-12-12-|
5|x-x-x-x-x-x-x-x-x-x-x-x-x-x--x--x--x--x--x--x--x--x--x--x--x--x--x--x--x--|
6|3-3-3-5-5-5-7-7-7-7-7-7-7-8--8--8--8--8--8--10-10-10-10-10-10-10-10-10-10-|


 |---------------|
 |***BREAKDOWN***|
 |---------------|

|
|
|  (GUITARRA EMMA)
|
| 1||------------------------------------------------------------||
| 2||------------------------------------------------------------||
| 3||------------------------------------------------------------||
| 4||-2-2-2--2-2--2--2-2---2-2-2---4-4-4--4-4--4--4-4---4-4-4----|| (2 Veces)
| 5||-2-2-2--2-2--2--2-2---2-2-2---4-4-4--4-4--4--4-4---4-4-4----||
| 6||-0-0-0--0-0--0--0-0---0-0-0---2-2-2--2-2--2--2-2---2-2-2----||
|     l---Palm Mute-------------l  l---Palm Mute-------------l    |


|  (GUITARRA BOB)
|
| 1||------------------------------------------------------------||
| 2||------------------------------------------------------------||
| 3||----------------------5/7/5------------------------5/7/5----||
| 4||-5-5-5--5-5--5--5-5---x/x/x---7-7-7--7-7--7--7-7---x/x/x----|| (2 veces)
| 5||-5-5-5--5-5--5--5-5---3/5/3---7-7-7--7-7--7--7-7---3/5/7----||
| 6||-3-3-3--3-3--3--3-3-----------5-5-5--5-5--5--5-5------------||
|     l---Palm Mute----l           l---Palm Mute-----l            |



 |----------|
 |***SOLO***|
 |----------|

|
|  (GUITARRA EMMA)
|
|
|1||-----------------------------------------------------------------------|
|2||-----------------------------------------------------------------------|
|3||----------------------------4--4-4-4--4-4-4-4--------------------------|
|4||-2--2-2-2--2-2-2-2----------4--4-4-4--4-4-4-4--------4--4-4-4--4-4-4-4-|
|5||-2--2-2-2--2-2-2-2----------2--2-2-2--2-2-2-2--------4--4-4-4--4-4-4-4-|
|6||-0--0-0-0--0-0-0-0----------2--2-2-2--2-2-2-2--------2--2-2-2--2-2-2-2-|

|
| 1||------------------------------||
| 2||------------------------------||
| 3||-6---6-6-6-4--4-4---4-4-4-4---||
| 4||-6---6-6-6-4--4-4---4-4-4-4---||
| 5||-4---4-4-4-2--2-2---2-2-2-2---||
| 6||-4---4-4-4-2--2-2---2-2-2-2---||

| 1||---------------------------------------------||
| 2||---------------------------------------------||
| 3||---------------------------------------------||
| 4||-2--2-2-2--2-2-2-2-------------------5----4--||
| 5||-2--2-2-2--2-2-2-2----9----7----2----7----2--||
| 6||-0--0-0-0--0-0-0-0----7----5----4------------||
|
(Todo 2 Veces)

  (GUITARRA BOB)

1||------------------------------------------------------------------------||
2||-----------------------------------8-------------------/13-------13-12~~||
3||-/9~--9-10--------/10--9~~~----10--10^12-10-9-10~~-10------12-----------||
4||------------10-7----------------------------------------------14--------||
5||------------------------------------------------------------------------||
6||------------------------------------------------------------------------||

1||------------------------------------------------------------------------||
2||-10--12^13^12-----------------------------------------------------------||
3||-----------------9-10-9-9---9-10-9-9---9-10-9-10--/12-10-9--------------||
4||-----------------------------------------------------------10-----------||
5||--------------------------------------------------------------10~-------||
6||------------------------------------------------------------------------||

1||--------------/15-13-12-------------------------------------------------||
2||------------------------13-----13-15-15^17-^17^15-13-15~~--15-17--------||
3||-/12-10-9-------------------12------------------------------------------||
4||----------10------------------------------------------------------------||
5||------------------------------------------------------------------------||
6||------------------------------------------------------------------------||

1||---------------------------------------------------------------17-19----||
2||-18p17p15-18p17p15-18p17p15-18p17p15-18p17p15-18^20---17-18-20----------||
3||------------------------------------------------------------------------||
4||------------------------------------------------------------------------||
5||------------------------------------------------------------------------||
6||------------------------------------------------------------------------||

1||-20^22^20-20p17----17---------------------------------------------------||
2||----------------20----20^22^20-17---------------------------------------||
3||----------------------------------19^21^19-17-17/-----------------------||
4||------------------------------------------------------------------------||
5||------------------------------------------------------------------------||
6||------------------------------------------------------------------------||


|  (GUITARRA EMMA)
|
|
| 1||----------------------------------------------------------------------||
| 2||----------------------------------------------------------------------||
| 3||----------------------------------4-4-4-4-4-4-4-4-4-4-4-4-4-4-4-4-----||
| 4||-2-2-2-2-2-2-2-2-2-2-2-2-2-2-2-2--4-4-4-4-4-4-4-4-4-4-4-4-4-4-4-4-----||
| 5||-2-2-2-2-2-2-2-2-2-2-2-2-2-2-2-2--2-2-2-2-2-2-2-2-2-2-2-2-2-2-2-2-----||
| 6||-0-0-0-0-0-0-0-0-0-0-0-0-0-0-0-0--2-2-2-2-2-2-2-2-2-2-2-2-2-2-2-2-----||
|
|
| 1||----------------------------------------------------------------------||
| 2||----------------------------------------------------------------------||
| 3||----------------------------------6-6-6-6-6-6-6-6-4-4-4-4-4-4-4-4-----||
| 4||-4-4-4-4-4-4-4-4-4-4-4-4-4-4-4-4--6-6-6-6-6-6-6-6-4-4-4-4-4-4-4-4-----||
| 5||-4-4-4-4-4-4-4-4-4-4-4-4-4-4-4-4--4-4-4-4-4-4-4-4-2-2-2-2-2-2-2-2-----||
| 6||-2-2-2-2-2-2-2-2-2-2-2-2-2-2-2-2--4-4-4-4-4-4-4-4-2-2-2-2-2-2-2-2-----||

(Todo 4 Veces)

|
|  (GUITARRA BOB)
|
| 1||-------------------------------------------||
| 2||-------------------------------------------||
| 3||-5---9--10-------7---9--10-----------------||
| 4||-x---x--x--5-----x---x--x---7----5---------||
| 5||-3---7--8--x-----5---7--8---x----x---------||
| 6||-----------3----------------5----3---------||
(Todo 4 veces)

 |-----------|
 |***Outro***|
 |-----------|

|
|  (GUITARRA EMMA)
|
| 1||----------------------------------------------------------------------||
| 2||----------------------------------------------------------------------||
| 3||--9-9-9-9-9-9-9-9-9-9-9-9-9-9-9-9-9-9-9-9-9-9-9-9---------------------||
| 4||--9-9-9-9-9-9-9-9-9-9-9-9-9-9-9-9-9-9-9-9-9-9-9-9---------------------||
| 5||--7-7-7-7-7-7-7-7-7-7-7-7-7-7-7-7-7-7-7-7-7-7-7-7---------------------||
| 6||----------------------------------------------------------------------||
|
| 1||----------------------------------------------------------------------||
| 2||----------------------------------------------------------------------||
| 3||--9-9-9-9-9-9-9-9-9-9-9-9-9-9-9-9-9-9-9-9-9-9-9-9---------------------||
| 4||--9-9-9-9-9-9-9-9-9-9-9-9-9-9-9-9-9-9-9-9-9-9-9-9-----7---------------||
| 5||--6-6-6-6-6-6-6-6-6-6-6-6-6-6-6-6-6-6-6-6-6-6-6-6-----7---------------||
| 6||------------------------------------------------------5---------------||
|
|   (GUITARRA BOB)
|
| 1||---------------------------------------------||
| 2||---------------------------------------------||
| 3||--5-5-5--7-7-7-9-9-9-10-10-10--10-9-8-5------||
| 4||--x-x-x--x-x-x-x-x-x-x--x--x---x--x-x-x--3---||
| 5||--3-3-3--5-5-5-7-7-7-8--8--8---8--7-5-3--3---||
| 6||-----------------------------------------1---||
Добавлено: 22.07.2013
Другие материалы по этой песне:
  • Аккорды и текст

Страница создана 06.06.2013
http://primanota.ru/akasha/cerca-del-sol-chords.htm
Привет, Гость.
Предлагаем пройти революционный курс по гитаре.
Подарок от PrimaNota.Ru, забирай!