PrimaNota.ru - самый крупный в мире бесплатный архив песенных текстов, аккордов, табулатур и нот


Akala - Stand Up - таба, видео

Регистрация Запомнить меня
Войти через:  Facebook Google Twitter Vk Yandex Mail.ru

Akala - Stand Up - таба, видео

Печатать
Просмотров: 190
Уроки эстрадного вокала в Санкт-Петербурге
Авторы: Kingslee Daley, Mczane Desir

-------------------------------------------------------------------------------
                             STAND UP - Akala
-------------------------------------------------------------------------------
Tabbed by: jetfuel495
Email:

Tuning: Standard (E)

FIRST GUITAR:

Main Riff (Played three times):

e|---------------------------------|
B|---------------------------------|
G|---------------------------------|
D|---------------------------------|
A|-----4-4-5-4-2---2---------------|
E|-2-2-----------5---5-4-0-2-0-2-0-|

PM . .           .   . . . . . . .


Fourth time play this:

e|---------------------------------|
B|---------------------------------|
G|---------------------------------|
D|---------------------------------|
A|-----4-4-5-4-2---2-------2-------|
E|-2-2-----------5---5-4-2---5-4-0-|
   . .           .   . . .   . . .
SECOND GUITAR:

(Played three times, corresponding to
the main riff being played three times)

e|---------------------------------|
B|---------------------------------|
G|---------------------------------|
D|-4-4-----------------------------|
A|-4-4-----------------------------|
E|-2-2-----------------------------|

On fourth time:

e|---------------------------------|
B|---------------------------------|
G|-2---------------4-------6-------|
D|-2---------------4-------6-------|
A|-0---------------2-------4-------|
E|---------------------------------|

That's basically it, for the whole song.
Добавлено: 28.04.2012
Другие материалы по этой песне:
  • Аккорды и текст

Страница создана 28.04.2012
http://primanota.ru/akala/stand-up-chords.htm
Привет, Гость.
Предлагаем пройти революционный курс по гитаре.
Подарок от PrimaNota.Ru, забирай!