PrimaNota.ru - самый крупный в мире бесплатный архив песенных текстов, аккордов, табулатур и нот


Aizat - Kau Aku - аккорды и текст, видео

Регистрация Запомнить меня
Войти через:  Facebook Google Twitter Vk Yandex Mail.ru

Aizat - Kau Aku - аккорды и текст, видео

Печатать
Просмотров: 160
Уроки эстрадного вокала в Санкт-Петербурге
Kau Aku
Aizat
----------------------------------------------------------------------------
---------------------------Aizat - Kau Aku
----------------------------------------------------------------------------

Tabbed by : M. Fathurrahman@tan
Email : Bboytan_mcgraddy@yahoo.com
aku tak boleh pastikan ini sempurna….
lagu yang bagus; sorry aku tak post lead, ada soalan ya'll can email me...
Chord used:
        (A)    (B)   (C#)   (D)  (E)   (F#m)   (G)    (Bm)    (D*)
e |-------------2-----4------2-----------2------3------2------------|
B |----2--------3-----5------3-----------2------3------4------------|
G |----2--------2-----4------2----1------3------0------4-------7----|
D |----2--------4-----6------0----2------4------0------3-------7----|
A |-------------2-----4-----------2------4------2------2-------4----|
E |-------------x-----x------------------2------3------2------------|

A              C#       D          G             A 
Kau dan aku adalah satu tak kira apa
A	    F#m		   D
Segala rintihan aku engkau
       E
Selalu ada
A		     D
Biar kata memisah kita
B	       E
Biarkan saja
F#m      E       Bm
Kerana terbiasa
2x[main dalam kord rock...
(Korus)

     	A           D          D*
Mengejar mimpi yang pasti
   Bm                      E
Akan aku sentiasa merasa
D         C# F#m
Kehilanganmu
        Bm               D   E      A
Ku akan tunggu saat bertemu
          D/  Bm            E         D         C#
Tiada henti walau di mana kita berdiri
                F#m
Di dalam dunia ini
        Bm          D    E        A
Biar sampai akhirnya nanti

interlude
[A, C#, D, Dm]
A	      C#	          D
Semua tak terang di mataku
            G
Walau warnanya menyala
A      F#m            D          E
Ingin merasa namun aku tak akan cuba
A		     D
Biar kata memisah kita
B	       E
Biarkan saja
F#m      E       Bm
Kerana terbiasa


(Ulang Korus)
        D   E     A
Akhirnya nanti…
          Bm          D   E       A
Biar sampai akhirnya nanti
Wooo…
(Ulang Korus)
          Bm          D   E       A
Biar sampai akhirnya nanti (4x)

-------------------------------------------------------------------
aku pun tak sure lagi kord ni, bgi aku kord ni betul tpi kalau tak betul komen je..
bboytan_mcgraddy@yahoo.com 


Добавлено: 11.05.2012
Другие материалы по этой песне:
  • Аккорды и текст

Страница создана 11.05.2012
http://primanota.ru/aizat/kau-aku-chords.htm
Привет, Гость.
Предлагаем пройти революционный курс по гитаре.
Подарок от PrimaNota.Ru, забирай!