PrimaNota.ru - самый крупный в мире бесплатный архив песенных текстов, аккордов, табулатур и нот


Aisha Kandishas Jarring Effects - A Muey A Muey - бас-таба, видео

Регистрация Запомнить меня
Войти через:  Facebook Google Twitter Vk Yandex Mail.ru

Aisha Kandishas Jarring Effects - A Muey A Muey - бас-таба, видео

Печатать
Просмотров: 27
-------------------------------------------------------------------------------
                A Muey A Muey - Aisha Kandisha's Jarring Effects
-------------------------------------------------------------------------------
Tabbed by: Stancranford
E-mail: simonhawkinsuk@gmail.com

Tuning: EADG

Intro

G|--------------------------------|
D|--------------------------------|
A|--------------------------------|
E|--------5\-----------5\---------|

Main Riff
                            x38
G|----------------------------|
D|----------------------------|
A|-0-0-0-0-0-0-0-0----------3-|
E|-----------------0--0--3----|

Bridge 1
                  
G|-----------------------|
D|-----------------------|
A|-0-0-0-0-0-0-0-0--0--0-|
E|-----------------------|

Verse 1
                       x4                        x2
G|------------------------|------------------------|----------------------|
D|------------------------|------------------------|----------------------|
A|-0-0-0-------0--0-------|------------------------|------------------/8\-|
E|-------0--3-------0--3--|-3-3-3-0--1--3--3-0--1--|-3-3-3-0--1--3--3-----|
                        x2                       x4
G|------------------------|------------------------|-----------------------------------|
D|------------------------|------------------------|-----------------------------------|
A|-0-0-0-------0--0-------|-0-0-0-------0--0-3--3--|-----------------------------------|
E|-------0--3-------0--3--|-------0--3-------------|-3-3-3-3-3-3-3-3-3-3-3-3-3-3-0-1-1-|
                                   x4
G|-----------------------------------|
D|-----------------------------------|
A|-0-0-0-0-0-0-0-0-0-0-0-0-0-0-------|
E|-----------------------------0--3--|

Bridge 2 x2

G|------------------------------------------------------------|
D|------------------------------------------------------------|
A|-0--0-0--0--0-0--0--0-0--0----------------------------------|
E|----------------------------0--3--3-3--3--3-3--3--3-3--3--0-|

G|------------------------------------------------------------|
D|------------------------------------------------------------|
A|------------------------------------------------------------|
E|-1--1-1--1--1-1--1--1-1--1/5--5--5-5--5--5-5--5--5-5--0--3--|

Verse 2 
                        x12
G|------------------------|------------------------|
D|------------------------|------------------------|
A|-0-0-0-------0--0-------|------------------------|
E|-------0--3-------0--3--|-3-3-3-0--1--3--3-0--1--|
                        x3
G|------------------------|------------------------|
D|------------------------|------------------------|
A|-0-0-0-------0--0-------|------------------------|
E|-------0--3-------0--3--|-3-3-3-0--1--3--3-0--1--|
                       x4
G|------------------------|
D|------------------------|
A|-0-0-0-------0--0-------|
E|-------0--3-------0--3--|

Breakdown

G|----------------------------------------------------|
D|----------------------------------------------------|
A|-0-----------0--0----------0----------0--0----------|
E|-----0---3---------5/12\-------0---3--------0---3---|
                                                     x2
G|-----------------------------------------------------|
D|-----------------------------------------------------|
A|-0-----------0--0-----------0---------0-0-0----------|
E|-----0---3----------0---3------0---3---------0---3---|

G|--------------------------------------------|
D|--------------------------------------------|
A|-0-----------0--0-----------0---------------|
E|-----0---3----------0---3------0---3--3/10\-|

Rest

Verse 3
                          x3
G|--------------------------|-------------------------|-------------------------|
D|------2-2-2-2-------------|------2-2-2-2------------|-------------------------|
A|-0--0---------0--0--0-----|-0--0---------0--0-------|-------------------------|
E|-----------------------3--|-------------------1--3--|-1-1-1-1-1-1-1-1-1-1--3--|
                                                 x8      
G|--------------------------|----------------------|
D|------2-2-2-2-------------|----------------------|
A|-0--0---------0--0--0-----|-0-0-0------0--0------|
E|-----------------------3--|-------0--3------0-3--|

Outro
                           x3
G|---------------------------|--------------------------|
D|---------------------------|--------------------------|
A|-0-----------0--0----------|-0-----------/7-7-7-7-5---|
E|-----0---3----------0---3--|-----0---3--------------7-|

G|---------------------------|-----------------------|
D|---------------------------|-----------------2-2-2-|
A|-0-----------0--0----------|-0-----------0-0-------|
E|-----0---3----------0---3--|-----0---3-------------|

G|---------------------------|----------------------------------|
D|---------------------------|--------------------------5--7--7-|
A|-0-----------0--0----------|-/7-7-7-7-7-7-7-7-7-7-7-7---------|
E|-----0---3----------0---3--|----------------------------------|


| /  slide up
| \  slide down

===============================================================================
Добавлено: 17.12.2015
Другие материалы по этой песне:
  • Аккорды и текст

Страница создана 17.12.2015
http://primanota.ru/aisha-kandishas-jarring-effects/muey-a-muey-chords.htm
Привет, Гость.
Предлагаем пройти революционный курс по гитаре.
Подарок от PrimaNota.Ru, забирай!