PrimaNota.ru - самый крупный в мире бесплатный архив песенных текстов, аккордов, табулатур и нот


Airbag - Steal My Soul - аккорды и текст, видео

Регистрация Запомнить меня
Войти через:  Facebook Google Twitter Vk Yandex Mail.ru

Airbag - Steal My Soul - аккорды и текст, видео

Печатать
Просмотров: 131
Steal My Soul
Airbag
---------------------------------------------------------------------------------------------------------------
                                          Artist - Airbag 
                                         *****************
                                        Song - Steal My Soul 
                                       **********************
                                       Album - Identity (2009)   
                                      *************************
                                        Tabbed By - Ayreon77
                                       **********************
---------------------------------------------------------------------------------------------------------------
Tuning = Standard

p   = Pull Off
h   = Hammer On
b   = Bend
rb  = Release Bend
rbp = Release Bend Pulloff
br  = Bend Release
brp = Bend Release Pulloff
/   = Slide
UB  = Union Bend


INTRO
******
SOUND EFFECTS

---------------------------------------
PIANO
******
Cm F X2

---------------------------------------
VERSE 1
********
   Cm
If someone comes here
          F
Close the door
   Cm
If someone comes to see me sleep
               F
I tell them to turn away


---------------------------------------
CHORUS
******* 
Am                            F
     Cause I used to pin your heart  
Am                       F
    And I used to be the boy with the gun


---------------------------------------
EBOW GUITAR SOLO
*****************
Cm F X4
e|-----------------------------------------------------------------------------------------------|
B|--------------s---------------s-------------------------s--------------------------------------|
G|-5~~~~~~~~~~~~\7~~~~~~~~~~~~~~\8~~~~~~~~~~~~~~10~~~~~~~~\5~~~~~~~~~~~~~~~~~~~~~~~~~~~~~~~~~~~~-|
D|-----------------------------------------------------------------------------------------------|
A|-----------------------------------------------------------------------------------------------|
E|-----------------------------------------------------------------------------------------------|X2

Cm F X2
Back Ground Vocal effects

---------------------------------------
VERSE 2
********
   Cm
If someone comes to steal away my soul 
    F
And take away everything I know
    Cm
You shut the windows and call for help
    F
And run away to save yourself 


---------------------------------------
CHORUS
******* 
Am                     F
    I used to pin your heart 
Am                       F
    And I used to be the boy with the gun 
Am                     F
    I used to pin your heart 
Am                                 F
    But I'm still the boy with the gun


---------------------------------------
SOLO - Am F                                       
*****                                             bend
04:48                                            Higher                      p         slow
e|--b--r-------------|--b--r----------------|--b---b------------|-10~~~~~~~-8-7---|--b--r--------|
B|-10----------------|-10--------------p--8-|-10------10~~~~~~~-|---------------8-|-10-----------|
G|-------9~~~~~~~~~~-|-------9~~~~~~~-9-7---|-------------------|-----------------|-------9~~~~~-|
D|-------------------|----------------------|-------------------|-----------------|--------------|
A|-------------------|----------------------|-------------------|-----------------|--------------|
E|-------------------|----------------------|-------------------|-----------------|--------------|

05:15
e|--------------------|---p------------s-|------------|---p------------s-|--h---------|
B|---------brp------b-|-12-8~~~~~~~~~~~\-|--h--p------|-12-8~~~~~~~~~~~\-|-8-10-------|
G|--s--5-7-7--5-7~~~--|------------------|-9-10-9~~~~-|------------------|------9~~~~-|
D|-5\7----------------|------------------|------------|------------------|------------|
A|--------------------|------------------|------------|------------------|------------|
E|--------------------|------------------|------------|------------------|------------|

 
e|---p------------s-|---------s-----------b-15--rbp-----b------|--br---whammy-s-|
B|-12-8~~~~~~~~~~~\-|-12-13-13\15--13-15-15----15--13-15--13~~-|-12--10/\/\---\-|
G|------------------|------------------------------------------|----------------|
D|------------------|------------------------------------------|----------------|
A|------------------|------------------------------------------|----------------|
E|------------------|------------------------------------------|----------------|

05:46                                                        
e|------------|------s----p----------------------|-----------|
B|-------b--r-|-5-6-6\8--6-5-6-5---5-----b-------|-br--------|
G|---5-7-7----|------------------7---7-5-7-5~~~~-|-4---s-----|
D|-7----------|----------------------------------|----5\7~~~-|
A|------------|----------------------------------|-----------|
E|------------|----------------------------------|-----------|

06:01 
e|-------------------------------------------s------------------slow---------------------------|
B|--s--8------8----8----8----8----8----8----8\10-10-brp----------b--8-rb-rb-----rb-------------|
G|-7\9---9~~----9----9----9----9----9----9----------7--5-7-5---5-7----7--7--5-7-7--7-5---5~~~~-|
D|-----------------------------------------------------------7-------------------------7-------|
A|---------------------------------------------------------------------------------------------|
E|---------------------------------------------------------------------------------------------|
                                                 
06:14                                            
e|--s----s------s------s------p----b----------15--rbp-----p----b------------15--rb-------------|
B|-6\8--8\10--12\13--13\15--15-13-15~~~~~~~~~----15--13-15-13-15~~~~~~~~~~-----15--13-15~~~~~~-|
G|---------------------------------------------------------------------------------------------|
D|---------------------------------------------------------------------------------------------|
A|---------------------------------------------------------------------------------------------|
E|---------------------------------------------------------------------------------------------|

06:26                          s                                            
e|-------------------------|-15\-----|---------s----------|--------b-----|
B|-13-15-13--rbp----b------|------12-|-12-13-13\15--15-15-|-13-15-15~~~~-|
G|----------12--10-12~~~~~-|---------|--------------------|--------------|
D|-------------------------|---------|--------------------|--------------|
A|-------------------------|---------|--------------------|--------------|
E|-------------------------|---------|--------------------|--------------|

     s                                      S  slow bend up
e|-15\17-17~~~~-|-15-17-15----s-------b-15--rb--b--|--|---------brp----b-------|
B|--------------|-----------17\15-13-15----15--15-15-15--13-15-15--13-15~~~~~~-|
G|--------------|--------------------------------------------------------------|
D|--------------|--------------------------------------------------------------|
A|--------------|--------------------------------------------------------------|
E|--------------|--------------------------------------------------------------|


---------------------------------------
PICKING PATTER THROUGH THE SOLO AND OUTRO - Repeat and fade
******************************************
  Am                                              F
e|-----0-----------------|-----0-----------------|-----0-------------------|-----0-------------------|
B|-------1---0-----1-----|-------1---0-----1-----|-------1---3-----1-------|-------1---3-----1-------|
G|---2-----2---2-----2---|---2-----2---2-----2---|---2-----2---2-----2---2-|---2-----2---2-----2---2-|
D|---------------2-----2-|---------------2-----2-|-3-------------3-----3---|-3-------------3-----3---|
A|-0---------------------|-0---------------------|-------------------------|-------------------------|
E|-----------------------|-----------------------|-------------------------|-------------------------|


ENJOY............
Добавлено: 25.02.2016
Другие материалы по этой песне:
  • Аккорды и текст

Страница создана 25.02.2016
http://primanota.ru/airbag/steal-my-soul-chords.htm
Привет, Гость.
Предлагаем пройти революционный курс по гитаре.
Подарок от PrimaNota.Ru, забирай!