PrimaNota.ru - самый крупный в мире бесплатный архив песенных текстов, аккордов, табулатур и нот


Airbag - Sounds I Hear - таба, видео

Регистрация Запомнить меня
Войти через:  Facebook Google Twitter Vk Yandex Mail.ru

Airbag - Sounds I Hear - таба, видео

Печатать
Просмотров: 145
                                          Artist - Airbag
                                         *****************
                                        Song - Sounds I Hear
                                       **********************
                                          Album - Identity
                                         ******************
                                        Tabbed By - Ayreon77
                                       **********************

    I think theres 4 chords here in the intro, i could not work the last one out
             if anyone can figure it out i,ll add it.     
INTRO - Piano - F Dm Am

------------------------------------
VERSE 1
********
        F
If it's all the same to you
Dm                    Am     
   I think I'm giving up
      F
But I won't go that far
Dm                Am            
   Just enough to make you sad


------------------------------------

CHORUS
*******
        C
And the sounds that I hear
Em                      Am
   Are heading down the stairs
    C
The memories we had
Em            Am
   Are left behind

SECTION 1
Play this picking throughout the chorus
  C                       Em                      Am
[-----------------------|-----------------------|-----------------0-----]
[-----1-----3-----1-----|-----0-----3-----0-----|-----1-----3-------1---]
[-------0-----0-----0---|-------0-----0-----0---|-------2-----2-------2-]
[---2-----2-----2-----2-|---2-----2-----2-----2-|---2-----2-----2-------]
[-3---------------------|-----------------------|-0---------------------]
[-----------------------|-0---------------------|-----------------------]


  Am
[-----------------0-----]
[-----1-----3-------1---] play
[-------2-----2-------2-]  2
[---2-----2-----2-------] times
[-0---------------------]
[-----------------------]


------------------------------------
ACOUSTIC Comes in here
*********
F Dm Am X2

------------------------------------
VERSE 2
********
        F
If it's all the same to you
Dm                 Am          
   Many years will pass us by
F                  
Somewhere in this room
Dm            Am       
   We just disappear
       F
And if I only knew
Dm        Am
  Where I am

Heavyish guitar
 Am                          
[----------------------------]
[-1----1--------1----3---1---]
[-2------2--------2----2---2-]
[-2--2--------2--------------]
[-0---------0----------------]
[----------------------------]

------------------------------------
CHORUS - Play section 1 picking
*******

this is guitar 2 heavish guitar cont... from above

  C   Em      Am
[---|-0------|---0--------|---|-------|---------------------]
[-1-|--0-----|-1--1-----1-|-1-|-0-----|-1----1--------1-1-1-]
[-0-|---0----|-2---2----2-|-0-|--0----|-2------2------2-2-2-]
[-2-|----2---|-2----2---2-|-2-|---2---|-2--2-----2----2-2-2-]
[-3-|-----2--|-0-----0--0-|-3-|----2--|-0----------0--0-0-0-]
[---|------0-|------------|---|-----0-|---------------------]

------------------------------------

        C             Em    Am
And the sounds that I hear

[---|---------|---------------------]
[-1-|-0-----0-|-1--1-1-1--1--1-1--1-]
[-0-|--0----0-|-2--2-2-2--2--2-2--2-]
[-2-|---2---2-|-2--2-2-2--2--2-2--2-]
[-3-|----2--2-|-0--0-0-0--0--0-0--0-]
[---|-----0-0-|---------------------]

           C             Em    Am
I said the sounds that I hear 


------------------------------------
SOLO - C Em Am - Pick these chords all the way throughout the solo.
*****
[---------------|----------|-------------|-----5--p-----------------------]
[-b-----8-br--b-|--br------|-------------|-b-5---8-5---rbp----p------s--8-]
[-7-------7-5-7-|-4---s----|--s--5-7-5---|-7---------7-7--5--7-5----7\9---]
[---------------|----5\7-7-|-5\7-5-7-5-7-|-----------------------7--------]
[---------------|----------|-------------|--------------------------------]
[---------------|----------|-------------|--------------------------------]
                                  
                                        hold------
                                          |       |
[----------------|---h-p----------|---------|-8-------]
[--s--8---10---8-|-5--6-5---------|-8-br--b-|---8-rb--]
[-7\9---9----9---|--------7-5---5-|---7-5-7-|-----7-5-]
[----------------|------------7---|---------|---------]
[----------------|----------------|---------|---------]
[----------------|----------------|---------|---------]


[--------------------------|-----------------------------------------]
[--s--8----10---8---10---8-|--s--8----10---8---10---8---------brp----]
[-7\9---9-----9---9----9---|-7\9---9-----9---9----9---9-7-----7--5---]
[--------------------------|------------------------------10-------7-]
[--------------------------|-----------------------------------------]
[--------------------------|-----------------------------------------]

                       s
[-----8---7---5---5---5\7---------8----10-------12----12----12----10---8-]
[--s-----------------------s-s--------------s----------------------------]
[-5\7---7---7---7---7-----7\8\9-9---10----10\12----12----12----10----9---]
[------------------------------------------------------------------------]
[------------------------------------------------------------------------]
[------------------------------------------------------------------------]

       s           s        s         s     s
[----10\12-12----12\10----10\8-8-8---8\7---7\5---|-------------------------]
[------------------------------------------------|---------brp------s------]
[-10----------12-------10----------7-----7-----5-|--s--5-7-7--5-7--5\4--s--]
[------------------------------------------------|-5\7-----------------5\7-]
[------------------------------------------------|-------------------------]
[------------------------------------------------|-------------------------]

  br              rake
[-7-------------|---10--br-----|-----------brp-----|-----------------------]
[---8-----br----|--9---12------|--s--8-10-10--8-10-|----------s-s----------]
[-----7-5-4-----|-9-------12-5-|-7\9---------------|--s--5-7-7\9\7-7-------]
[-----------5-5-|--------------|-------------------|-5\7--------------s--5-]
[---------------|--------------|-------------------|-----------------5\7---]
[---------------|--------------|-------------------|-----------------------]


[----------|-----5--p-------------]
[----------|-b-5---8-5---rbp---s--]
[----5-5---|-7---------7-7--5-7\9-]
[-7--5-5-7-|----------------------]
[----------|----------------------]
[----------|----------------------]


[-------------------------------------------------------------------------]
[-8----8---10---8---10---8---10---8---10---8---10---8---10---8-----s---s--]
[----9---9----9---9----9---9----9---9----9---9----9---9----9---9-9-\7-7\5-]
[-------------------------------------------------------------------------]
[-------------------------------------------------------------------------]
[-------------------------------------------------------------------------]

                                  p
[-------------------------|---10-8-7-------|------------|-------]
[--s---s------------------|-8--------8--s--|---brp------|-8---8-]
[-5\4-4\2--s--------------|------------7\9-|-5-7--5-5---|-7---7-]
[---------5\7-5--s-----s--|----------------|----------7-|---7---]
[---------------7\5-3-5\7-|----------------|------------|-------]
[-------------------------|----------------|------------|-------]


[--h-p----------|----h-p----------|-------------|--------------]
[-5-6-5----h----|---5-6-5----h----|-br----------|--------b-----]
[-------7-5-7-5-|-5-------7-5-7-5-|-4--------h--|--s---5-7-5---]
[---------------|-----------------|---5-7-5-5-7-|-5\7--5-7-5-7-]
[---------------|-----------------|-------------|--------------]
[---------------|-----------------|-------------|--------------]


[-------5----p-----------|---------7-----7-----7-----10----------]
[---b-5---5-8-5---rbp--b-|-8---8-----8-----8-----8------8----8---]
[-7-7-----------7-7--5-7-|---9---9-----9-----9-----9------9----9-]
[------------------------|---------------------------------------]
[------------------------|---------------------------------------]
[------------------------|---------------------------------------]


[-----------------]
[--s--------------]
[-9\7---s-s--s----]
[-----10\9/10\9-7-]
[-----------------]
[-----------------]

                                                       s
[-----8-----10------12----12----12------10------8-----8\7-----7-]
[--s-----s-------s------------------s--------s-----s-------s----]
[-7\9---9\10---10\12---12----12---12\10----10\9---9\7-----5\7---]
[---------------------------------------------------------------]
[---------------------------------------------------------------]
[---------------------------------------------------------------]


[------8---7--5------------|--------------------------------5--s-------]
[--s----------------s------|----s---------------br------b-5---8\10-8-8-]
[-5\7---7---7----5-5\7-5---|-5-5\7-7-7--7-5---5-7-5---5-7--------------]
[------------------------7-|-5-5\7-7-7--7-5-7-5-----7------------------]
[--------------------------|-------------------------------------------]
[--------------------------|-------------------------------------------]

        p
[---10-8-7-------|-------------|-----|--h-p----------|--h-p----------]
[-8--------8--s--|---brp---b---|--b--|-5-6-5---------|-5-6-5---------]
[------------7\9-|-5-7--5-5----|-5---|-------7-5-7---|-------7-5-7---]
[----------------|-----------7-|---7-|-------------7-|-------------7-]
[----------------|-------------|-----|---------------|----fade out---]
[----------------|-------------|-----|---------------|---------------]



A nice track, kinda difficult solo. hope someone finds it useful. Enjoy...
Добавлено: 02.08.2013
Другие материалы по этой песне:
  • Аккорды и текст

Страница создана 02.08.2013
http://primanota.ru/airbag/sounds-i-hear-chords.htm
Привет, Гость.
Предлагаем пройти революционный курс по гитаре.
Подарок от PrimaNota.Ru, забирай!