PrimaNota.ru - самый крупный в мире бесплатный архив песенных текстов, аккордов, табулатур и нот


Airbag - Safe Like You - таба, бас-таба, видео

Регистрация Запомнить меня
Войти через:  Facebook Google Twitter Vk Yandex Mail.ru

Airbag - Safe Like You - таба, бас-таба, видео

Печатать
Просмотров: 110
---------------------------------------------------------------------------------------------------------------
                                          Artist - Airbag
                                         *****************
                                       Song - Safe Like You
                                      **********************
                                      Album - Identity (2009)    
                                     *************************
                                        Tabbed By - Ayreon77
                                       **********************
---------------------------------------------------------------------------------------------------------------
Tuning = Standard

p   = Pull Off
h   = Hammer On
b   = Bend
rb  = Release Bend
rbp = Release Bend Pulloff
br  = Bend Release
brp = Bend Release Pulloff
/   = Slide
UB  = Union Bend



INTRO - Keyboards - Em F


-----------------------------------------------
EBOW SOLO 
**********
00:22
e|-----------------------------------------------------------------------------------------------------|
B|----------------------------s--------------s-------------s-----s-----s--------------s--------------s-|
G|-12~~~~~~~~~~~~~~~~~~~~~~~~~\14~~~~~~~~~~~~\12~~~~~~~~~~~\9~~~~\12~~~~\9~~~~~~~~~~~~\7~~~~~~~~~~~~~\-|E
D|-----------------------------------------------------------------------------------------------------|B
A|-----------------------------------------------------------------------------------------------------|O
E|-----------------------------------------------------------------------------------------------------|W
                                                                     VERSE 1
                                                                     Over and over I stumble across
e|-----------------------------------------------------------------------------------------------------|
B|----------------------------s--------------s-----------------------s---------------------------------|
G|-12~~~~~~~~~~~~~~~~~~~~~~~~~\14~~~~~~~~~~~~\12~~~~~~~~~~~~~~~~~~~~~\9~~~~~~~~~~~~~~~~~~~~~~~~~~~~----|E
D|-----------------------------------------------------------------------------------------------------|B
A|-----------------------------------------------------------------------------------------------------|O
E|-----------------------------------------------------------------------------------------------------|W

  The line I drew here on my floor                                   No one knows but I can tell
e|-----------------------------------------------------------------------------------------------|
B|--------------------------------s-----------------------------------s--------------------------|
G|~~~~~~~~~~~~~~~~~~~~~~~~~~~~~~~~\12~~~~~~~~~~~~~~~~~~~~~~~~~~~~~~~~~\9~~~~~~~~~~~~~~~~~~~~~~~~-|E
D|-----------------------------------------------------------------------------------------------|B
A|-----------------------------------------------------------------------------------------------|O
E|-----------------------------------------------------------------------------------------------|W

  That I don't live here anymore
e|------------------------------------------------------------------------------------------------------------|
B|------------------------------s---------------------s--------------s-------------s-----s-----s-----------s--|
G|~~~~~~~~~~~~~~~~~~~~~~~~~~~~~~\12~~~~~~~~~~~~~~~~~~~\14~~~~~~~~~~~~\12~~~~~~~~~~~\9~~~~\12~~~\9~~~~~~~~~~\7-|E
D|------------------------------------------------------------------------------------------------------------|B
A|------------------------------------------------------------------------------------------------------------|O
E|------------------------------------------------------------------------------------------------------------|W


-----------------------------------------------
                                                                     VERSE 2
                                                                     Paralyzed but confident
e|-------------------------------------------------------------------------------------------|
B|--------s-------------------s--------------s-----------------------s-----------------------|
G|-~~~~~~~\12~~~~~~~~~~~~~~~~~\14~~~~~~~~~~~~\12~~~~~~~~~~~~~~~~~~~~~\9~~~~~~~~~~Fade Out...-|E
D|-------------------------------------------------------------------------------------------|B
A|-------------------------------------------------------------------------------------------|O
E|-------------------------------------------------------------------------------------------|W

                          F
I feel the pain inside my head
C
My stomach aches
                                F
When you look at me as if I was fake


-----------------------------------------------
02:15
CHORUS
*******
PICKING - Play this with the CHORUS below
********
  Fmaj7
e|---------|---------|---------|---------|---------|---------|---------|---------|---------|---------|
B|-----1---|-----1---|-----1---|-----1---|-----1---|-----1---|-----1---|-----1---|-----1---|-----1---|
G|---2---2-|---2---2-|---2---2-|---2---2-|---2---2-|---2---2-|---2---2-|---2---2-|---2---2-|---2---2-|
D|-3-------|-3-------|-3-------|-3-------|-3-------|-3-------|-3-------|-3-------|-3-------|-3-------|
A|---------|---------|---------|---------|---------|---------|---------|---------|---------|---------|
E|---------|---------|---------|---------|---------|---------|---------|---------|---------|---------|

  Em                                          Fmaj7
e|----------|----------|----------|----------|---------|---------|---------|---------|
B|-----3----|-----3----|-----3----|-----3----|-----1---|-----1---|-----1---|-----1---|
G|---0---0--|---0---0--|---0---0--|---0---0--|---2---2-|---2---2-|---2---2-|---2---2-|
D|-2--------|-2--------|-2--------|-2--------|-3-------|-3-------|-3-------|-3-------|Repeat this
A|----------|----------|----------|----------|---------|---------|---------|---------|Section for 
E|----------|----------|----------|----------|---------|---------|---------|---------| the desired amount


        F                            Em
I wanna be                 safe like you are
e|---------15~~~~~~~~~~~~~~~~~~~\17~~~~~~~~\15~~~~~~~-|
B|----------------------------------------------------|
G|----------------------------------------------------|E
D|----------------------------------------------------|B
A|----------------------------------------------------|O
E|----------------------------------------------------|W
              F              Em
safe from the strain I feel
e|---------15~~~~~~~~~~~~~~~~~~~\17~~~~~~\15~~~~~~~\12~~~~~~~-|
B|------------------------------------------------------------|
G|------------------------------------------------------------|E
D|------------------------------------------------------------|B
A|------------------------------------------------------------|O
E|------------------------------------------------------------|W
        F                            Em
I wanna be                 safe like you are
e|---------15~~~~~~~~~~~~~~~~~~~\17~~~~~~\15~~~~~~~\12~~~~~~~-|
B|------------------------------------------------------------|
G|------------------------------------------------------------|E
D|------------------------------------------------------------|B
A|------------------------------------------------------------|O
E|------------------------------------------------------------|W
              F
Away from the noise I hear
e|------------15~~~~~~~~~~~~~~~~~~~\17~~~~~~~~-|
B|---------------------------------------------|
G|---------------------------------------------|E
D|---------------------------------------------|B
A|---------------------------------------------|O
E|---------------------------------------------|W


-----------------------------------------------
03:08
EBOW SOLO
**********                                                     
e|------------------------------------------------------------Trill....................-----------------------|
B|-s--------------------s-----s-----s----------s----s-------------h--p-h--p-h--p-h--p----s---s-s--s--s-----s--|
G|-\12~~~~~~~~~~~~~~~~~~\9~~~~\12~~~\9~~~~~~~~~\7~~~\9~~~~~~~-12-9-12-9-12-9-12-9-12-9~~~\2~\4~\5~\4~\2~~~~\9~|E
D|------------------------------------------------------------------------------------------------------------|B
A|------------------------------------------------------------------------------------------------------------|O
E|------------------------------------------------------------------------------------------------------------|W
                             C                                                           F
                   VERSE 2 - Over and over I stumble across   The line I drew here on my floor
e|------------------------------------------------------------------------------------------------------------|
B|-------------s-------s-s--s------------------------------------------------------s----------s---------------|
G|~~~~~~~~~~~~~\7~~~~~~\9\10\9~~~~~~~~~~~~~~~~~~~~~~~~~~~~~~~~~~~~~~~~~~~~~~~~~~~~~\14~~~~~~~~\12~~~~~~~~~~~~-|E
D|------------------------------------------------------------------------------------------------------------|B
A|------------------------------------------------------------------------------------------------------------|O
E|------------------------------------------------------------------------------------------------------------|W
                                  C                                                  F
                                  No one knows but I can tell That I don't live here anymore
e|--------------------------------------------------------------------------------s---------------------------|
B|------------------s-------s-s--s------------------------------------------------\22~~~----------------------|
G|~~~~~~~~~~~~~~~~~~\7~~~~~~\9\10\9~~~~~~~~~~~~~~~~~~~~~~~~~---------------------------------12~~~~~~~~~~~~~--|E
D|------------------------------------------------------------------------------------------------------------|B
A|------------------------------------------------------------------------------------------------------------|O
E|------------------------------------------------------------------------------------------------------------|W


-----------------------------------------------
03:54
CHORUS
*******
PICKING - Play this with the CHORUS below
********
  Fmaj7
e|---------|---------|---------|---------|---------|---------|---------|---------|---------|---------|
B|-----1---|-----1---|-----1---|-----1---|-----1---|-----1---|-----1---|-----1---|-----1---|-----1---|
G|---2---2-|---2---2-|---2---2-|---2---2-|---2---2-|---2---2-|---2---2-|---2---2-|---2---2-|---2---2-|
D|-3-------|-3-------|-3-------|-3-------|-3-------|-3-------|-3-------|-3-------|-3-------|-3-------|
A|---------|---------|---------|---------|---------|---------|---------|---------|---------|---------|
E|---------|---------|---------|---------|---------|---------|---------|---------|---------|---------|

  Em                                          Fmaj7
e|----------|----------|----------|----------|---------|---------|---------|---------|
B|-----3----|-----3----|-----3----|-----3----|-----1---|-----1---|-----1---|-----1---|
G|---0---0--|---0---0--|---0---0--|---0---0--|---2---2-|---2---2-|---2---2-|---2---2-|
D|-2--------|-2--------|-2--------|-2--------|-3-------|-3-------|-3-------|-3-------|Repeat this
A|----------|----------|----------|----------|---------|---------|---------|---------|Section for 
E|----------|----------|----------|----------|---------|---------|---------|---------| the desired amount


        F                            Em
I wanna be                 safe like you are
e|---------15~~~~~~~~~~~~~~~~~~~\17~~~~~~~~\15~~~~~~~-|
B|----------------------------------------------------|
G|----------------------------------------------------|E
D|----------------------------------------------------|B
A|----------------------------------------------------|O
E|----------------------------------------------------|W
              F              Em
safe from the strain I feel
e|---------15~~~~~~~~~~~~~~~~~~~\17~~~~~~\15~~~~~~~\12~~~~~~~-|
B|------------------------------------------------------------|
G|------------------------------------------------------------|E
D|------------------------------------------------------------|B
A|------------------------------------------------------------|O
E|------------------------------------------------------------|W
        F                            Em
I wanna be                 safe like you are
e|---------15~~~~~~~~~~~~~~~~~~~\17~~~~~~\15~~~~~~~\12~~~~~~~-|
B|------------------------------------------------------------|
G|------------------------------------------------------------|E
D|------------------------------------------------------------|B
A|------------------------------------------------------------|O
E|------------------------------------------------------------|W
              F
Away from the noise I hear
e|------------15~~~~~~~~~~~~~~~~~~~\17~~~~~~~~\15~~~~~~~-|
B|-------------------------------------------------------|
G|-------------------------------------------------------|E
D|-------------------------------------------------------|B
A|-------------------------------------------------------|O
E|-------------------------------------------------------|W


-----------------------------------------------
04:50
SOLO 1                                            hold
*******                                           bend
e|---------h--p--p------|--h-----|--brp-----|--b--|--|--rb------|
B|-12-12-12-13-12-10-12-|-8-10---|-10--8-10-|-12-12-12-12-10-12-|
G|----------------------|------9-|----------|-------------------|
D|----------------------|--------|----------|-------------------|
A|----------------------|--------|----------|-------------------|
E|----------------------|--------|----------|-------------------|


-----------------------------------------------
05:00
FAST PICKING
*************
e|----|----------|----------|----------|----|----------|----------|----------|\
B|----|-12-------|-12-------|-12-------|----|-12-------|-12-------|-12-------| \ 
G|----|----12----|----12----|----12----|----|----12----|----12----|----12----|  \
D|-14-|-------14-|-------14-|-------14-|-14-|-------14-|-------14-|-------14-|   \
A|----|----------|----------|----------|----|----------|----------|----------|    \
E|----|----------|----------|----------|----|----------|----------|----------|     \
                                                                                    \
                                                                                    /X4
e|----|----------|----------|----------|----|----------|----------|----------|     /
B|----|-13-------|-13-------|-13-------|----|-13-------|-13-------|-15-------|    /
G|----|----14----|----14----|----14----|----|----14----|----14----|----14----|   /
D|-15-|-------15-|-------15-|-------15-|-15-|-------15-|-------15-|-------15-|  /
A|----|----------|----------|----------|----|----------|----------|----------| /
E|----|----------|----------|----------|----|----------|----------|----------|/

05:14
EBOW SOLO - Play this with the above Fast Picking
**********
e|-----------s----s---------|-----------s----s---------|-----------s----s---------|-----------s----s---------|
B|-5~~~~~~~~~\17~~\12~~~~~~-|-5~~~~~~~~~\17~~\12~~~~~~-|-6~~~~~~~~~\18~~\13~~~~~~-|-6~~~~~~~~~\18~~\13~~~~~~-|
G|--------------------------|--------------------------|--------------------------|--------------------------|E
D|--------------------------|--------------------------|--------------------------|--------------------------|B
A|--------------------------|--------------------------|--------------------------|--------------------------|O
E|--------------------------|--------------------------|--------------------------|--------------------------|W

                                                                                    s       s
e|-----------s----s---------|-----------s----s---------|-----------s----s---------|-\17~~~~~\20~~~~~13~~~~~~~-|
B|-5~~~~~~~~~\17~~\12~~~~~~-|-5~~~~~~~~~\17~~\12~~~~~~-|-6~~~~~~~~~\18~~\13~~~~~~-|---------------------------|
G|--------------------------|--------------------------|--------------------------|---------------------------|E
D|--------------------------|--------------------------|--------------------------|---------------------------|B
A|--------------------------|--------------------------|--------------------------|---------------------------|O
E|--------------------------|--------------------------|--------------------------|---------------------------|W


e|-----------s----s---------|-----------s----s---------|-----------s----s---------|-----------s----s---------|
B|-5~~~~~~~~~\17~~\12~~~~~~-|-5~~~~~~~~~\17~~\12~~~~~~-|-6~~~~~~~~~\18~~\13~~~~~~-|-6~~~~~~~~~\18~~\13~~~~~~-|
G|--------------------------|--------------------------|--------------------------|--------------------------|E
D|--------------------------|--------------------------|--------------------------|--------------------------|B
A|--------------------------|--------------------------|--------------------------|--------------------------|O
E|--------------------------|--------------------------|--------------------------|--------------------------|W


-----------------------------------------------
05:53
SOLO 2 - With Picking from above
*******                                                                    06:16
e|---------------|------------------|------------------|------------------|-------|
B|---------------|------------------|------------------|------------------|-----7-|
G|---------------|------------------|------------------|------------------|--s----|
D|--s------------|-----s------------|-----s------------|-----s------------|-7\9---|
A|-5\7--3-3~~~~~-|-5--5\7--2-2~~~~~-|-5--5\7--3-3~~~~~-|-5--5\7--2-2~~~~~-|-------|
E|---------------|------------------|------------------|------------------|-------|

                                                     06:32
e|------------------|-------------------------------|-------------------------|-------------|
B|------------------|-------------------------------|-------------------------|-------------|
G|------------------|-------------------------------|-------------------------|-------------|
D|-----s------------|------------------s------------|-----s-------------------|-----s-------|
A|-5--5\7--3-3~~~~~-|--------------5--5\7--2-2~~~~~-|-5--5\7--3-3~~~~~--------|-5--5\7~~~~~-|
E|------------------|-------------------------------|-------------------------|-------------|
 |                                                                                          |
 |GUITAR 2                                                                                  |
e|------------------|-------------------------------|------------------|--------------------|
B|------------------|-------------------------------|------------------|--------------------|
G|------------------|-------------------------------|------------------|--------------------|
D|------------------|-10-9----s---------------------|------------------|--------------------|
A|------------------|------10-\12-12--7-------------|------------------|-12-10-12-10--------|
E|------------------|-------------------------------|------------------|--------------------|


-----------------------------------------------
06:43
EBOW SOLO OUTRO
****************
e|---------------------------------------------------------------------------------------------------------|
B|--------------s-------------s-------------s------------s-------------s-------------s---------s-------s---|
G|-12~~~~~~~~~~~\14~~~~~~~~~~~\12~~~~~~~~~~~\9~~~~~~~~~~~\12~~~~~~~~~~~\14~~~~~~~~~~~\12~~~~~~~\7~~~~~\9~~-|E
D|---------------------------------------------------------------------------------------------------------|B
A|---------------------------------------------------------------------------------------------------------|O
E|---------------------------------------------------------------------------------------------------------|W


  EBOW 1
e|------------------------------------------------------------------------------------------------------------|
B|--------------------s--------s--------s-----------------s------s----------------------s----------s----------|
G|~~~~~~~~~~~~~~~~~~~~\12~~~~~~\14~~~~~~\12~~~~~~~~~~~~~~~\7~~~~~\9~~~~~~~~~~~~~~~~~~~~~\14~~~~~~~~\12~~~~~~~-|E
D|------------------------------------------------------------------------------------------------------------|B
A|------------------------------------------------------------------------------------------------------------|O
E|------------------------------------------------------------------------------------------------------------|W
 |                                                                                                            |
 |EBOW 2   07:09                                                                                              |
e|------------------------------------------------------------------------------------------------------------|
B|-----------------s----s----s------------------------------------------------------s---------s----s----s-----|
G|---------7~~~~~~~\5~~~\4~~~\2~~~~~~~~~~~~~~~~~~~~~~~~~~~~~~~~~~~~~~~~~~~~~~~~~~~~~\7~~~~~~~~\5~~~\4~~~\2~~~-|E
D|------------------------------------------------------------------------------------------------------------|B
A|------------------------------------------------------------------------------------------------------------|O
E|------------------------------------------------------------------------------------------------------------|W


  EBOW 1
e|----------------------------------------------------------------------------------------------------------|
B|-----------------------------s-------s---------------------s----------s--------------------s------s-------|
G|~~~~~~~~~~~~~~~~~~~~~~~~~~~~~\7~~~~~\9~~~~~~~~~~~~~~~~~~~~~\14~~~~~~~~\12~~~~~~~~~~~~~~~~~~\7~~~~~\9~~~~~-|E
D|----------------------------------------------------------------------------------------------------------|B
A|----------------------------------------------------------------------------------------------------------|O
E|----------------------------------------------------------------------------------------------------------|W
 |                                                                                                          |
 |EBOW 2                                                                                                    |
e|----------------------------------------------------------------------------------------------------------|
B|-------------------------------------------------------s--------s----s----s-------------------------------|
G|~~~~~~~~~~~~~~~~~~~~~~~~~~~~~~~~~~~~~~~~~~~~~~~~~~~~~~~\7~~~~~~~\5~~~\4~~~\2~~~~~~~~~~~~~~~~~~~~~~--------|E
D|----------------------------------------------------------------------------------------------------------|B
A|----------------------------------------------------------------------------------------------------------|O
E|----------------------------------------------------------------------------------------------------------|W



ENJOY............
Добавлено: 25.02.2016
Другие материалы по этой песне:
  • Аккорды и текст

Страница создана 25.02.2016
http://primanota.ru/airbag/safe-like-you-chords.htm
Привет, Гость.
Предлагаем пройти революционный курс по гитаре.
Подарок от PrimaNota.Ru, забирай!