PrimaNota.ru - самый крупный в мире бесплатный архив песенных текстов, аккордов, табулатур и нот


Airbag - Never Coming Home - аккорды и текст, видео

Регистрация Запомнить меня
Войти через:  Facebook Google Twitter Vk Yandex Mail.ru

Airbag - Never Coming Home - аккорды и текст, видео

Печатать
Просмотров: 213
Уроки эстрадного вокала в Санкт-Петербурге
Never Coming Home
Airbag
---------------------------------------------------------------------------------------------------------------
                                          Artist - Airbag
                                         *****************
                                      Song - Never Coming Home
                                     **************************
                                   Album - All Rights Removed (2011)
                                  ***********************************
                                         Tabbed By - Ayreon77
                                        **********************
---------------------------------------------------------------------------------------------------------------
Tuning = Standard

p   = Pull Off
h   = Hammer On
b   = Bend
rb  = Release Bend
rbp = Release Bend Pulloff
br  = Bend Release
brp = Bend Release Pulloff
/   = Slide
UB  = Union Bend



INTRO - Sound effects and synth
******

Faint electric guitar 
Am


-------------------------
VERSE 1
********
Am
   Too scared to sleep alone. 

Feels like I'm running falling down.
 
The dark is changing me. 

And spreads as far as I can see. 


-------------------------
CHORUS
*******
                F
And it tears me up inside. 
                     Am
It bleeds from every bone.
                   F
Sometimes I wonder why.
                      Am
Why your never coming home.


Picking
  Am
e|----0-----|
B|------1-0-|
G|----------|
D|----------|
A|-0--------|
E|----------|X4

                            Am
-------------------------  |----0-------|
VERSE 2                    |------1---0-|
********                   |--------2---|
Am                         |------------|   
Are dreams and memories    |-0----------|
                           |------------|
Are like summer fires beneath our feet

GUITAR 2
e|-----3-|
B|--s----|
G|-2\4---|
D|-------|
A|-------|
E|-------|

Your eyes cut through my heart

And force me down onto my knees

e|-----|
B|--s--|
G|-5\7-|
D|-5\7-|
A|-----|
E|-----|


-------------------------
Acoustic guitar comes in here also
GUITAR 2
  Dm
e|-----|
B|--s--|
G|-5\7-|
D|-----|
A|-----|
E|-----|

Am Dm


SMALL SOLO 1 - Slight Wha Wha     
*************
02:46               
   Am                G             Dm                            Am
   UB   UB
e|-------------------------------|--b-15--b-|--brp-----------------------|
B|-5~~~-5~~~--s--8---8-10-s----s-|-15----15-|-15--13-15-13-12-13-12~~~~~-|
G|-7~~~-7~~~-5\9---9------\9~~~\-|----------|----------------------------|
D|-------------------------------|----------|----------------------------|
A|-------------------------------|----------|----------------------------|
E|-------------------------------|----------|----------------------------|


-------------------------
CHORUS
*******    
                F
And it tears me up inside

e|--------------------|
B|-rbp----------------|
G|-7--5-7-5---5-------|
D|----------7---7~~~~-|
A|--------------------|
E|--------------------|
G                       F
   And I always seem to lose the fight
G                    F
   Afraid and cold I wonder why
G                        Am
   Why your never coming home


-------------------------
CHORUS
*******    
                F
And it tears me up inside
G                       F
   And I always seem to lose the fight
G                    F
   Afraid and cold I wonder why
G                        Am
   Why your never coming home


-------------------------
SMALL SOLO 2
*************
03:48
e|--b-r--b-|--brp------|----------|
B|-16---16-|-16--14-16-|---h----b-|
G|---------|-----------|-12-14-14-|
D|---------|-----------|----------|
A|---------|-----------|----------|
E|---------|-----------|----------|


-------------------------
04:00
CLEAN PICKING ELECTRIC GUITAR             
******************************
e|---0-------|
B|-----1---0-|
G|-------2---|
D|-----------|
A|-0---------|
E|-----------|X8


-------------------------
04:23
SYNTH SOLO
***********

                05:19
                SOLO
  05:04   05:11 ***** 
e|-----3-|-----|--s-----b-r----|---------|----------|---------------------|---------|-----------------|
B|--s----|--s--|-8\10~~-8--~~~-|----br---|-8-brp----|----------brp--------|------s--|-----------------|
G|-2\4---|-5\7-|---------------|-9--9-~~-|---7--5-7-|--s--5-7--7--5-7-5---|--h--5\4-|--s--------------|
D|-------|-5\7-|---------------|---------|----------|-5\7---------------7-|-5-7-----|-5\7-5--s-----s--|
A|-------|-----|---------------|---------|----------|---------------------|---------|-------7\5-3-5\7-|
E|-------|-----|---------------|---------|----------|---------------------|---------|-----------------|

05:47
e|--b----rbp------|--------brb-|--rbp------|--h-----|--h-----|-------------5--p--b-|
B|-12---12--10-12-|-10-12-12---|-12--10-12-|-8-10---|-8-10---|---------b-5---7-5-7-|
G|----------------|------------|-----------|------9-|------7-|--s--5-7-7-----------|
D|----------------|------------|-----------|--------|--------|-5\7-----------------|
A|----------------|------------|-----------|--------|--------|---------------------|
E|----------------|------------|-----------|--------|--------|---------------------|

06:14
e|--------------|----------------|---------------------------------|-------|------p---s-----8--------|
B|-brp----b-----|-8-b-rp-------s-|---------b----------------brp----|-b-5-8-|-b-5-8-5-8\10~~---10~~~~-|
G|-7--5-7-7~~~~-|---7--5-7~~~~~\-|--s--5-7-7-7-5----------5-7--5-7-|-7-----|-7-----------------------|
D|--------------|----------------|-5\7-----------7-5-7-7-----------|-------|-------------------------|
A|--------------|----------------|---------------------------------|-------|-------------------------|
E|--------------|----------------|---------------------------------|-------|-------------------------|

06:31 higher
e|--b--b----|---------p-------------------|--b-rp-------b----15--rb-p----------b-|
B|-15-------|-13-12-13-12---s-------------|-15---13-15-15~~~~~~--15-13-15----13--|
G|----------|-------------12\14~~~~~~~~~~-|-------------------------------14-----|
D|----------|-----------------------------|--------------------------------------|
A|----------|-----------------------------|--------------------------------------|
E|----------|-----------------------------|--------------------------------------|

06:48                                                                              Hold
e|--------------b-------------------|--------------------------------------------the bend-----------|
B|---s---13-15-15-15-13-------------|--b------------s--8--s---s-s----s----br----b-|-|-|-|-rb--------|
G|-12\14----------------14-12-14-14-|-16-16-12-14--7\9---9\7-7\9\-5-5\7-4-4~~~~-2-2-2-2-2-2-~~~~~~~-|
D|----------------------------------|---------------------------------------------------------------|
A|----------------------------------|---------------------------------------------------------------|
E|----------------------------------|---------------------------------------------------------------|

 rake
e|---5------------------------|-----------------------------------------|
B|--5--8-rbp------------------|-this just-------------------------------|
G|-5-----7--5--5-----feedback-|----ads lib------------------------------|
D|---------------7------------|------I may come back--------------------|
A|----------------------------|----------and finish this----------------|
E|----------------------------|---------------but its right at the end.-|




ENJOY.............
Добавлено: 25.02.2016
Другие материалы по этой песне:
  • Аккорды и текст

Страница создана 25.02.2016
http://primanota.ru/airbag/never-coming-home-chords.htm
Привет, Гость.
Предлагаем пройти революционный курс по гитаре.
Подарок от PrimaNota.Ru, забирай!