PrimaNota.ru - самый крупный в мире бесплатный архив песенных текстов, аккордов, табулатур и нот


Air - Jeanne - текст песни, таба, видео

Регистрация Запомнить меня
Войти через:  Facebook Google Twitter Vk Yandex Mail.ru

Air - Jeanne - текст песни, таба, видео

Печатать
Просмотров: 364
Авторы музыки: Nicolas Godin, Jean-Benoît Dunckel
Авторы текста: Françoise Hardy
Artist: Air (with Francoise Hardy)
Title: Jeanne
Transcribed By: Stephen Shodimu
Email: sos182@hotmail.com

[French isn't my first language, so sorry for any mistakes..]

Lyrics available via google.com
Comments welcome!

Intro (and Verses)
------------------

     Am                                Asus4/C#     C
e--------0-----------0-----------0-----------0--------------0-----------
b-----------1-----------1-----------1-----------1--------1--------------
G-----2-----------2-----------2--------------------------------4--2--0--
D--2-----------1-----------0--------------2-----------2-----------------
A--------------------------------------4-----------3--------------------
E-----------------------------------------------------------------------

    G             F#m7    Asus2                           G
e----------------------------------------------------2h3p2p0------------
b------0--0h1r0-------------------0-p-1--0--------------------0---------
G----0----------0--------------2--2---------2-----2--------------0------
D------------------4--------2-----2------------2-----------------0------
A--2---------------------4--------0------------------------------2------
E3--------------------2------------------------------------------3------

      C        Am7dim9   Bsus2
e----------------------------------------------------------
b-----------1-----------0----------------------------------
G--------0-----------0-----4--5--4--2--4--2----------------
D-----2-----------2--------4-----------------5--4----------
A--3-----------0-----------2-------------------------------
E--------------------------2-------------------------------
                                             |  |
                      swap these 2 at end of 2nd line of verse 1 (not 2)
Verse 1
-------
Chorus
------
         G            G            Bm          Bm          Em          Em
e--------------------------------------------------------------------------
b----------------------------------3-----------3-----------0-----------0---
G--------0------------0------------4-----------4-----------0-----------0---
D--------0------------0---------4-----4-----4-----4-----2-----2-----2-----2
A-----2------2-----2-----2---2-----------2-----------2-----------2---------
E--3------------3----------------------------------------------------------

         C           C                G            G            Bm
e-------------------------------------------------------------------
b--------1-----------1------------------------------------------3---
G--------0-----------0----------------0------------0------------4---
D-----2-----2-----2-----2-------------0------------0---------4-----4
A--3-----------3-----------3-------2------2-----2-----2---2---------
E-------------------------------3------------3----------------------

        Bm          Em          Em           C           C
e----------------------------------------------------------------
b-------3-----------0-----------0------------1-----------1-------
G-------4-----------0-----------0------------0-----------0-------
D----4-----4-----2-----2-----2-----2------2-----2-----2-----2----
A-2-----------2-----------2------------3-----------3-----------3-
E----------------------------------------------------------------

        G                 B5
e----------------------------
b----------------------------
G-------0------------0-----4-
D-------0------------0-----4-
A----2------2-----2-----2--2-
E-3------------3-------------

Verse 2
-------
Chorus2
-------
Middle8 (same as chorus, with a Theremin)
---------------------------------------
Verse 3 [no chords for 1st 2 lines]
-------
                        Non, Jeanne n'a  pas     besoin
              G                C           Em                     G
e--------0--2--3--2--0--------------0-----------0----------0--2--3--2--0
b-----0-----------------0--------1-----------0----------0---------------
G-----------------------------------------------------------------------
D-----------------------------2-----------2-----------------------------
A--------------------------3-----------2--------------------------------
E--3-------------------------------------------------3------------------

  qu'on lui fasse   un   dessin.
      C                    Em
e-----------0---------------0--
b--------1-----------0--4---0--
G---------------------------0--
D-----2-----------0---------2--
A--3-----------2------------2--
E---------------------------0--

---
     
Добавлено: 02.12.2013
Другие материалы по этой песне:
  • Аккорды и текст

Страница создана 17.04.2012
http://primanota.ru/air/jeanne-chords.htm
Привет, Гость.
Предлагаем пройти революционный курс по гитаре.
Подарок от PrimaNota.Ru, забирай!