PrimaNota.ru - самый крупный в мире бесплатный архив песенных текстов, аккордов, табулатур и нот


Air - Alpha Beta Gaga - таба, видео

Регистрация Запомнить меня
Войти через:  Facebook Google Twitter Vk Yandex Mail.ru

Air - Alpha Beta Gaga - таба, видео

Печатать
Просмотров: 117
Авторы музыки: Nicolas Godin, Jean-Benoît Dunckel

Air
"Alpha Beta Gaga"
off of Talkie Walkie
ben_fico@yahoo.com



intro/intermission part

e|----------------------------------------|
b|-7h8-8-8-87-7-7-7-7-6-6-6-65-5-5-54-4-3-|
g|----------------------------------------|
d|----------------------------------------|  
a|----------------------------------------|       
e|----------------------------------------|       


whistle part

Chords G         Bb             C      Eb   D

e|--------------------------------------------|
b|-----12-------------------------------------|
g|.--------12----10------10--12-9------8--10-.|
d|.--12-------12------12------------10-------.|
a|--------------------------------------------|
e|--------------------------------------------|



banjo sounding part (near the end)

e|--------------------------|
b|--------------------------|
g|-------10----12--10----10-|    3x
d|----12----12--------12----|
a|-10-----------------------|
e|--------------------------|

add this when whistles start up again
g|----12----12----12-----12-12-|
e|-----------------------------|
b|-11----11----11-----11-------|

d|-----------------------------|
a|-----------------------------|
e|-----------------------------|

this file is all my own work

__________________________________
     
Добавлено: 02.10.2013
Другие материалы по этой песне:

Страница создана 20.04.2012
http://primanota.ru/air/alpha-beta-gaga-chords.htm
Привет, Гость.
Предлагаем пройти революционный курс по гитаре.
Подарок от PrimaNota.Ru, забирай!