PrimaNota.ru - самый крупный в мире бесплатный архив песенных текстов, аккордов, табулатур и нот


Air Traffic Controller - Hurry Hurry - таба, видео

Регистрация Запомнить меня
Войти через:  Facebook Google Twitter Vk Yandex Mail.ru

Air Traffic Controller - Hurry Hurry - таба, видео

Печатать
Просмотров: 83
Уроки эстрадного вокала в Санкт-Петербурге
This is my first time posting a tab online.
I did this by ear and it sounds right, you're welcome to make
any improvements/additions that you want.


Intro:

E|--7--------------------7--|--7-----------------------|
B|-----9-----7-----7--9-----|-----9-----7-----7--9-----|
G|--------9-----9-----------|--------9-----9--------6--|
D|--------------------------|--------------------------|
A|--------------------------|--------------------------|
E|--------------------------|--------------------------|

E|--7------------------------|--7-----------------------|
B|-----9-----7-----7--9--10--|-----9-----7-----7--9-----|
G|--------9-----9------------|--------9-----9--------9--|
D|---------------------------|--------------------------|
A|---------------------------|--------------------------|
E|---------------------------|--------------------------|
Добавлено: 23.12.2015
Другие материалы по этой песне:
  • Аккорды и текст

Страница создана 23.12.2015
http://primanota.ru/air-traffic-controller/hurry-hurry-chords.htm
Привет, Гость.
Предлагаем пройти революционный курс по гитаре.
Подарок от PrimaNota.Ru, забирай!