PrimaNota.ru - самый крупный в мире бесплатный архив песенных текстов, аккордов, табулатур и нот


Air Pressure - Manic Summer Days - таба, видео

Регистрация Запомнить меня
Войти через:  Facebook Google Twitter Vk Yandex Mail.ru

Air Pressure - Manic Summer Days - таба, видео

Печатать
Просмотров: 49
song
drop D both guitars

guitar 1 (verse/intro)
e----------------------------------------------------------------
B----------------------------------------------------------------
G----------------------------------------------------------------
D------------------------10-----------------------------10-12-12-
A--------12-10-12--12-12----12-10-------12-10-12--12-12----------
D--12-12--------------------------10-10--------------------------

e----------------------------------------------------------------
B----------------------------------------------------------------
G----------------------------------------------------------------
D----------------------10-----------------------------10---------
A------12-10-12--12-12----12-10-------12-10-12--12-12----12-10---
D--7-7--------------------------10-10----------------------------
guitar 2 (verse)
e-------------------------------------------------
B-------------------------------------------------
G-------------------------------------------------
D-------------------------------------------------
A-------------------------------------------------
D--12-12-12-12---12-12-12-10-10-10-10---10-10-10--

e-------------------------------------------------
B-------------------------------------------------
G-------------------------------------------------
D-------------------------------------------------
A-------------------------------------------------
D--7-7-7-7---7-7-7-10-10-10-10---10-10-10---------
chorus (both guitars)
e-------------------------------------------------
B-------------------------------------------------
G-------------------------------------------------
D--12-12-12-12---12-12-12-7-7-7-7---7-7-7---------
A--12-12-12-12---12-12-12-7-7-7-7---7-7-7---------
D--12-12-12-12---12-12-12-7-7-7-7---7-7-7---------

e-------------------------------------------------
B-------------------------------------------------
G-------------------------------------------------
D--10-10-10-10---10-10-10-7-7-7-10---0------------
A--10-10-10-10---10-10-10-7-7-7-10---0------------
D--10-10-10-10---10-10-10-7-7-7-10---0------------
bridge
e-------------------------------------------------
B-------------------------------------------------
G-------------------------------------------------
D--12----------10----------7----------10----------
A--12----------10----------7----------10----------
D--12----------10----------7----------10----------
solo
e--10-10-10-10---10-10-10-8-8-8-8---8-8-8---------
e--5-5-5-5---5-5-5-8-8-8-8---8-8-8----------------
e--10-10-10-10^11-10-10-10-8-8-8-8^9-8-8-8--------
e--5-5-5-5^6-5-5-5-8-8-8-8^9-8-8-8----------------
solo continued with variation
end
song order-
intro guitar 1
chorus guitar 1/2 (no singing)
verse guitar 1/2
chorus guitar 1/2
bridge
verse guitar 2 (no singing)
solo guitar 1 - verse guitar 2
end

________________________________________________________________________________
     
Добавлено: 23.10.2013
Другие материалы по этой песне:
  • Аккорды и текст

Страница создана 23.10.2013
http://primanota.ru/air-pressure/manic-summer-days-chords.htm
Привет, Гость.
Предлагаем пройти революционный курс по гитаре.
Подарок от PrimaNota.Ru, забирай!