PrimaNota.ru - самый крупный в мире бесплатный архив песенных текстов, аккордов, табулатур и нот


Aim - Sun Goes Down - таба, видео

Регистрация Запомнить меня
Войти через:  Facebook Google Twitter Vk Yandex Mail.ru

Aim - Sun Goes Down - таба, видео

Печатать
Просмотров: 111
Note: b ---> flat
I can't find a better symbol. ^_^;;

This song is in D# major (or Eb major, whatever you want to
call it. Uh, I think I'll use Eb). This song is mostly
strumming, so here I'll give you mostly chords.

Intro:
Eb Bb Cm Bb Eb Bb Cm Bb (Figure out the timing yourself).

Verse:
Eb     Bb             Cm     Bb
Mou dore kurai no jikan ga sugita darou

  Ab          Bb               Eb
Kimi to kono oka ni suwarikonde

     Eb      Bb              Cm         Bb
Dare ni mo ienai hodo no kowaresou na kanashimi demo

     Ab          Bb               Eb
Kimi dake no suteki na takaramono dakara


Pre-Chorus:
   Db             Ab            Eb
Suiheisen ni shizumu taiyou ga kyou no iro ni somatte mietemo

    Db               Ab          B            Bb
Ashita wa chigai iro no sekai wo kitto terasu kara


Chorus:
Eb                  Bb
Sun goes down me wo tojite

    Cm             Ab            Bb
Fukinukeru kaze ga namida kawakashi

Eb               Bb            Cm            Db      Bb
Hashirisaru toki no naka de mayottemo tachidomattemo ii kara

Ab               Bb                Db                          Eb
Itsu demo kimi no soba ni iru kara douka sono tabi wo akiramenaide


in the middle of the chorus, this comes up:
------------------------------8\---------3----------|
----------------------------------------------------|
----------------------------------------------------|
----------------------------------------------------|
----------------------------------------------------|
----------------------------------------------------|
Sun goes down     me wo tojite     Fukinukeru...

-------------------------------8\---3---------------|
----------------------------------------------------|
----------------------------------------------------|
----------------------------------------------------|
----------------------------------------------------|
----------------------------------------------------|
Hashirisaru     toki no naka de   mayottemo tachidomattemo...

----------------10/--------------13\----9----4\-1----------|
-----------------------------------------------------------|
-------------------------------------------------------6\--|
-----------------------------------------------------------|
-----------------------------------------------------------|
-----------------------------------------------------------|
Itsudemo kimi no soba ni iru kara douka sono tabi wo akiramenaide

Something like that. The timing is approximate. You can figure it
out yourself.

And then the intro: Same.
Verse: Same.
Chorus: Same but for one thing.

At the end of the second chorus (uh, this counts as a solo, I guess):
--------------10/------------13\---9-----4\-1--------------|
-----------------------------------------------------------|
-----------------------------------------------------3/----|
-----------------------------------------------------------|
-----------------------------------------------------------|
-----------------------------------------------------------|
Ab            Bb             Db                              Eb
Douka jibun wo nage dasanaide itsuka kono tabi ga owaru toki made


-6---7\---3---4p3-------6----8---11\-8----/16-16\15-15\13-13\11-11/14--|
------------------4--4/------------------------------------------------|
-----------------------------------------------------------------------|
-----------------------------------------------------------------------|
-----------------------------------------------------------------------|
-----------------------------------------------------------------------|
   Bb    Cm  Ab      Bb Eb  Bb      Ab                            Gb

And then this (continued from above):

----------------------------------------------14\-6-\-2/7--------------|
-----------------------------------------------------------------------|
-----------------------------------------------------------------------|
-----------------------------------------------------------------------|
-----------------------------------------------------------------------|
-----------------------------------------------------------------------|
Gb              Ab      Db                Ebm(*)       B
  Michi ni mayotta toki wa tori ni nareba ii

--------------9---------------6----------------------------------------|
---------------------------3/------------------------------------------|
-----------------------------------------------------------------------|
-----------------------------------------------------------------------|
-----------------------------------------------------------------------|
-----------------------------------------------------------------------|
B             Db     Bb
 ryoute hirogete takaku

Chorus: Same.

Outro:
--------------4p3------------------------------------------------------|
------------------4----------------------------------------------------|
-----------------------------------------------------------------------|
-----------------------------------------------------------------------|
-----------------------------------------------------------------------|
-----------------------------------------------------------------------|
Eb    Bb    Cm      Bb Eb    Bb    Cm    Bb Eb

(*) Yes, you read right. E flat minor.

And that's it. My first serious (and complete this time) tab.
Добавлено: 26.07.2012
Вам также может быть интересно:
Другие материалы по этой песне:
  • Аккорды и текст

Страница создана 26.07.2012
http://primanota.ru/aim/sun-goes-down-chords.htm
Привет, Гость.
Предлагаем пройти революционный курс по гитаре.
Подарок от PrimaNota.Ru, забирай!