PrimaNota.ru - самый крупный в мире бесплатный архив песенных текстов, аккордов, табулатур и нот


Aik - Broken Walls - бас-таба, видео

Регистрация Запомнить меня
Войти через:  Facebook Google Twitter Vk Yandex Mail.ru

Aik - Broken Walls - бас-таба, видео

Печатать
Просмотров: 36
-------------------------------------------------------------------------------
                             SONG NAME - Band Name
-------------------------------------------------------------------------------
Tabbed by:
E-mail:

Tuning:

G|------------------------------------------------------------|
D|--2---2---2-2--2 ----------------------------------------4--|
A|------------------5---5---5-5---3--3---3-3--3---2-2--2------|
E|------------------------------------------------------------|

G|---------------------------------------------------------------|
D|--2---2---2-2--2-----------4-5---------------------------------|
A|------------------5---5----------3---3--3-5-3--2---2---2----2--|
E|---------------------------------------------------------------|

G|-----------------------------------------------------------------------------------|
D|----------------------------------5---4 -------------------------------------------|
A|--7-----7---10---7---------7-------------------------------------------------------|
E|-----7--------------7---------9----------------------------------------------------|

G|-----------------------------------------------------------------------------------|
D|-----------------------------9----5---4--------------------------------------------|
A|--7-----7---10---7---------9-------------------------------------------------------|
E|-----7--------------9--------------------------------------------------------------|

G|----------------------------------------------------------------------------|
D|----------------------------------------------------------------------------|
A|--7-----7---10---7-------7--9----10-----10----10----14------10--9--9--9-----|
E|-----7--------------7---------------------------------------------------11--|


First
G|---------------------------------------------------------------------------------------|
D|---------------------------------------------------------------------------------------|
A|---------5---7----7---7----------------------------------------------------------------|
E|-0---7------------------5---7---8---7---5---3---2 -------------------------------------|

Second
G|--------------------------------------------------------------------------------------|
D|--------------------------------------------------------------------------------------|
A|---------5---7----7---7---------5------5-----5  --------------------------------------|
E|-0---7------------------5---7------7------7-------------------------------------------|

Third
G|-------------------------------------------------------------------------------|
D|-------------------------------------------------------------------------------|
A|---------5---7-----7--7------------------------------2--5--5--3--2-------------|
E|-0---7------------------5---7---8---7---5---3---2-2-----------------7---5---2--|

G|---------------------------------------------------------------------------|
D|---------------------------------------------------------------------------|
A|---------------------------------------------------------------------------|
E|---------------------------------------------------------------------------|


| /  slide up
| \  slide down
| h  hammer-on
| p  pull-off
| ~  vibrato
| +  harmonic
| x  Mute note
===============================================================================
Добавлено: 11.12.2015
Вам также может быть интересно:
Другие материалы по этой песне:
  • Аккорды и текст

Страница создана 11.12.2015
http://primanota.ru/aik/broken-walls-chords.htm
Привет, Гость.
Предлагаем пройти революционный курс по гитаре.
Подарок от PrimaNota.Ru, забирай!