PrimaNota.ru - самый крупный в мире бесплатный архив песенных текстов, аккордов, табулатур и нот


Aiden - There Will Be Blood - таба, видео

Регистрация Запомнить меня
Войти через:  Facebook Google Twitter Vk Yandex Mail.ru

Aiden - There Will Be Blood - таба, видео

Печатать
Просмотров: 98
---------------------------------------------------------------------------------------
                                               THERE WILL BE BLOOD TAB - AIDEN
---------------------------------------------------------------------------------------

This is a kick-ass opener from Aiden's newest album, Some Kind of Hate.  It's written in G minor.

Tabbed by: JoshDropD
email: josh.defibaugh.g@gmail.com

Tuning: D Standard DGCFAd

Opening - played twice

d|-------------------------------------------------------------|
A|-------------------------------------------------------------|
F|-------------------------------------------------------------|
C|-------------------------------------------------------------|
G|-12/0--0-0-2-2-3-3-5-5-0-0-2-2-3-3-5-5-8-8-7-5--3-2-3-2-2----|
D|-------------------------------------------------------------|

Verse - It's difficult to tab out the strumming.  Listen closely.
Played twice.

d|---------------------------------|
A|---------------------------------|
F|---------------------------------|
C|-7-----------3----------5--------|
G|-7-----------3----------5--------|
D|-5-16 beats--1-4 beats--3-4 beats|

Pre chorus.

d|-------------------------------|
A|-------------------------------|
F|-------------------------------|
C|-3----5----7----3----5----2----|
G|-3----5----7----3----5----2----|
D|-1----3----5----1----3----0----|

Chorus

d|-----------------------|
A|-----------------------|
F|-----------5-----------|
C|-7----3----5----5------|
G|-7----3----3----5------|
D|-5----1---------3------|

Repeat Intro once
Repeat Verse
Repeat Chorus

Interlude chords

d|-0----0----1----|
A|-1----0----1----|
F|-2----0----2----|
C|-2----2----3----|
G|----------------|
D|----------------|

Repeat chorus
Repeat intro/now outro.

Done!
Добавлено: 25.08.2013
Другие материалы по этой песне:
  • Аккорды и текст

Страница создана 25.08.2013
http://primanota.ru/aiden/there-will-be-blood-chords.htm
Привет, Гость.
Предлагаем пройти революционный курс по гитаре.
Подарок от PrimaNota.Ru, забирай!