PrimaNota.ru - самый крупный в мире бесплатный архив песенных текстов, аккордов, табулатур и нот


Aiden - Scavengers Of The Damned - таба, бас-таба, видео

Регистрация Запомнить меня
Войти через:  Facebook Google Twitter Vk Yandex Mail.ru

Aiden - Scavengers Of The Damned - таба, бас-таба, видео

Печатать
Просмотров: 166
-------------------------------------------------------------------------------
                             Scavengers of the damned - Aiden
-------------------------------------------------------------------------------
Tabbed by:Spencer Bond (lu13cky)
Email:lu13cky@yahoo.com

Tuning:eadgbe

This is my first tab. Its pretty close im sure its off a little bit but I figured this 
help some one els with tabbing this song. Feel free to edit this as much as you want or 
with the rest of the song. Please give me credit for my little part though.
Thanks to metalboyjp for the help.

e|---------------------------------------------------------------------------|
B|---------------------------------------------------------------------------|
G|---------------------------------------------------------------------------|
D|---------------------------------------------------------------------------|
A|---55---77---5-3-2---------------------------------------------------------|
E|---33---55---3-1-0---------------------------------------------------------|



e|-------------5----8----6-5-5-----------------------------------------------|
B|----------6----6----6--------------5-6-5-----------------------------------|
G|--------7------------------------5-------5---------------------------------|
D|-------------------------------7-------------------------------------------|
A|---------------------------------------------------------------------------|
E|---------------------------------------------------------------------------|
Добавлено: 20.03.2012
Другие материалы по этой песне:

Страница создана 20.03.2012
http://primanota.ru/aiden/scavengers-of-the-damned-chords.htm
Привет, Гость.
Предлагаем пройти революционный курс по гитаре.
Подарок от PrimaNota.Ru, забирай!