PrimaNota.ru - самый крупный в мире бесплатный архив песенных текстов, аккордов, табулатур и нот


Aiden - Pledge Resistance - текст песни, таба, бас-таба, видео

Регистрация Запомнить меня
Войти через:  Facebook Google Twitter Vk Yandex Mail.ru

Aiden - Pledge Resistance - текст песни, таба, бас-таба, видео

Печатать
Просмотров: 167
Intro:

Play x3 with palm mute

e|--------------------------------------------|
B|--------------------------------------------|
G|--------------------------------------------|
D|-6-6-6-9-6-6-9-6-6-9-6-6-11-11-11-11--------|
A|--------------------------------------------|
E|--------------------------------------------|


Part A:

Play x2 

e|------------------------|  
B|------------------------|   
G|------------------------|   
D|--6------4-------2------|   
A|--6------4-------2------|   
E|--4(x4)--2(x4)---0(x4)--|   


e|--------------|
B|--------------|
G|--------------|
D|---4--4-------|
A|---4--4-------|
E|---2--2-------|


Riff:

Play x4 with slight mute
e|----------------------------------------------|
B|----------------------------------------------|
G|--------------6-----------------------4--4----|
D|---6-7-8-7-8-----8-7h8p7-6-6-7-8-7-8--4--4----|
A|--------------------------------------2--1----|
E|----------------------------------------------|


e|-----------------------------------|
B|-----------------------------------|
G|--------------6--------------------|
D|---6-7-8-7-8-----8-7-8--7-8-7--6---|
A|-------------------------------6---|
E|-------------------------------4---|

verse:  

e|-----------------------------------------------|
B|-----------------------------------------------|
G|-----------------------------------------------|
D|---6---4---------------------------------------|
A|---6---4---------------------------------------|
E|---4---2---12-11-9-7-6-4-12-11-9-9-11-12-------|

e|----------------------------------------------|
B|----------------------------------------------|
G|----------------------------------------------|
D|----6------4------2------4--------------------|
A|----6------4------2------4--------------------|
E|----4(x8)--2(x8)--0(x8)--2(x8)----------------|

Chorus:

play x3
e|--------------------------------------------------|
B|--------------------------------------------------|
G|--------------------------------------------------|
D|---6------4---------------------------------------|
A|---6------4---------------------------------------|
E|---4------2---12-11-9-7-6-4-12-11-9-9-11-12-------|

And I feel....   
 
Bridge:

e|--------------------------|
B|--------------------------|
G|--------------------------|
D|-x-------6-------14-------|
A|-x-------6-------14-------|
E|-x(x5)---4(x3)---12(x3)---|

play x2

e|-----------------------|
B|-----------------------|
G|-----------------------|
D|--6-------14-----------|
A|--6-------14-----------|
E|--4(x3)---12(x3)-------|

play x2

e|--------------------------------|
B|--------------------------------|
G|--------------------------------|
D|--4-----2-----------------------|
A|--4-----2-----------------------|
E|--2(x3)-0-----------------------|

e|-----------------------------|
B|-----------------------------|
G|-----------------------------|
D|---4--4--4-------------------|
A|---4--4--4-------------------|
E|---2--0--2-------------------|


ending:

Play x2

e|-------------------------------------|
B|-------------------------------------|
G|-------------------------------------|
D|--6---6h7v--7h9v--7--6---------------|
A|--6------------------6---------------|
E|--4------------------4---------------|

Play till end

e|---------------------------------------------------|
B|---------------------------------------------------|
G|---------------------------------6-----------------|
D|---14-------9----6-----6-7-8-7-8---8-7h8p7---------|
A|---14-------9----6---------------------------------|
E|---12(x8)---7----4---------------------------------|

************************************************************
Sequence

Intro
Part A
Riff
Verse
Chorus
Riff
Verse
Chorus
Bridge X2
Ending














Добавлено: 28.05.2012
Другие материалы по этой песне:
  • Аккорды и текст

Страница создана 28.02.2012
http://primanota.ru/aiden/pledge-resistance-chords.htm
Привет, Гость.
Предлагаем пройти революционный курс по гитаре.
Подарок от PrimaNota.Ru, забирай!