PrimaNota.ru - самый крупный в мире бесплатный архив песенных текстов, аккордов, табулатур и нот


Aiden - Crusifiction - таба, видео

Регистрация Запомнить меня
Войти через:  Facebook Google Twitter Vk Yandex Mail.ru

Aiden - Crusifiction - таба, видео

Печатать
Просмотров: 150
Уроки эстрадного вокала в Санкт-Петербурге
Artist: Aiden
Song: Crusifiction
Album: Knives
Tuning: Drop D

Intro/Verse:
e---------------------------------------------------------------------|
b-------11--11--11---------13--13--13--13--15--15--15--15--11--11--10-|
g-12-12---12--12--12-12-12---12--12--12--12--12--12--12--12--12--12---|
d---------------------------------------------------------------------|
a---------------------------------------------------------------------|
d---------------------------------------------------------------------|

Chorus:
e-----------------------------------------------------------------------|
b-----------------------------------------------------------------------|
g-8-8--7-7--5-5--3-3----------------------------------------------------|
d-8-8--7-7--5-5--3-3--5-5-5-5-5-5-5-5--8-8-5-5-3-3-1-1--1-1-1-1-1-------|
a-6-6--5-5--3-3--1-1--5-5-5-5-5-5-5-5--8-8-5-5-3-3-1-1--1-1-1-1-1-------|
d---------------------5-5-5-5-5-5-5-5--8-8-5-5-3-3-1-1--1-1-1-1-1-------|
                                                       PM --------------| (fast)
e-----------------------------------------------------------------------|
b-----------------------------------------------------------------------|
g-----------------------------------------------------------------------|
d-0~-12---10---8--------------------------------------------------------|
a-0~--------------------------------------------------------------------|
d-0~---0-0--0-0---------------------------------------------------------|
PM     - -  - -

Solo:
e------------------------------------------------------------------------|
b------------------------------------------------------------------------|
g------------------------------------------------------------------------|
d-0~-12---10---8--12---10--------------------------------------5-5-5-3-1-|
a-0~------------------------------5p3-5p3-5p3-5-6-8-6-5-3-3-1------------|
d-0~---0-0--0-0-----0-0---3/12\3-----------------------------------------|

e-------------------------------------------------------------------------|
b-------------------------------------------------------------------------|
g--------------------------------------7~-7~-7~-7~-7~-7~-7~-7~-7~-7~-7~---|
d----------5h7-7h8--8-7---5-3-1-0-----------------------------------------|
a--5h6-6h8--------------8--------3-1--------------------------------------|
d-------------------------------------------------------------------------|

e-----------------------------|
b-----------------------------|
g-15-14-12-X5---9~-9~-9~-9~-9-|
d-----------------------------|
a-----------------------------|
d-----------------------------|

Rhythm guitar during solo:
e--------------------------------------------------|
b--------------------------------------------------|
g--------------------------------------------------|
d-5-5-5-5-5-5-5-5-3-3-3-3-3-3-3-3-1-1-1-1-1-1-1-1--|
a-5-5-5-5-5-5-5-5-3-3-3-3-3-3-3-3-1-1-1-1-1-1-1-1--|
d-5-5-5-5-5-5-5-5-3-3-3-3-3-3-3-3-1-1-1-1-1-1-1-1--|

Bridge:
e-----------------------------------------|
b-----------------------------------------|
g--------7-7-7-7-7-7-7-7------------------|
d---0-0--x-x-x-x-x-x-x-x--12---10---8-----|
a---0-0--5-5-5-5-5-5-5-5------------------|
d---0-0---------------------0-0--0-0------|
                         pm - -  - -

Chorus

End On
e-------------------------------------|
b-------------------------------------|
g-------------------------------------|
d-5-5-5-5-5-5-5-5-8-8-5-5-3-3-1-1--1~-|
a-5-5-5-5-5-5-5-5-8-8-5-5-3-3-1-1--1~-|
d-5-5-5-5-5-5-5-5-8-8-5-5-3-3-1-1--1~-|

Song Order:
Intro/verse
Chorus
Verse
Solo
Bridge
Chorus
End
Добавлено: 05.12.2013
Другие материалы по этой песне:
  • Аккорды и текст

Страница создана 05.12.2013
http://primanota.ru/aiden/crusifiction-chords.htm
Привет, Гость.
Предлагаем пройти революционный курс по гитаре.
Подарок от PrimaNota.Ru, забирай!