PrimaNota.ru - самый крупный в мире бесплатный архив песенных текстов, аккордов, табулатур и нот


Aiden - City Is Far From Here - таба, видео

Регистрация Запомнить меня
Войти через:  Facebook Google Twitter Vk Yandex Mail.ru

Aiden - City Is Far From Here - таба, видео

Печатать
Просмотров: 133
THE CITY IS FAR FROM HERE by AIDEN

I'm pretty sure this tab is correct,but email or comment if you think theres anything 
with it

Guitar 1 (Jake Wambold): Db Ab Db Gb Bb Eb
Guitar 2 (Angel Ibarra): Db Ab Db Gb Bb Eb

Intro

In the intro you can hear something in the background with wiL singing over the top,but 
not sure if its guitar or not...but here is what it could be if there is a guitar in the background

---------------------------|
---------------------------|
---------------------------|
--2-------5-------0--------|
--2 (x16)-5 (x16)-0 (x16)--|
--2-------5-------0--------|
  .       .       .
this played over,ending on 0 palm muted,letting it ring until it leads into the verse. 
is also some feedback in the background from the other guitar.

Verse

Guitar 1

-------------------------------------|
-------------------------------------|
-----7------7------7------7----------|
---9------9------9------9-----7*-----| x2
-7------7------7------7-------7*(x7)-|
------------------------------7*-----|

Guitar 2

---7---7---7-8-7--|
--8---8---8-------|
-9---9---9--------|
------------------| x4
------------------|
------------------|

Prechorus

Guitar 1

------------------------------------------------|
------------------------------------------------|
------------------------------------------------|
------------------------------------------------|
--7-10-9-10--7-10-9-10--7-10-9-10--7-10-9-10-7--|
------------------------------------------------|

Guitar 2

-------------------|
-------------------|
--5-------7--------|
--5 (x24)-7 (x24)--|
--3-------5--------|
-------------------|

Chorus

Guitar 1

-------------------------------------------------------------|
-------------------------------------------------------------|
-7-------9------12-----9------12-----11------12------14------|
-x (x24)-x (x6)-x (x6)-x (x6)-x (x6)-x (x24)-x (x12)-x (x12)-| x2
-5-------7------10-----7------10-----9-------10------12------|
-------------------------------------------------------------|

Guitar 2

------------------------------------------|
------------------------------------------|
-------------------------5----------------|
-5-------2-------0-------5 (x12)-0--------| x2
-5 (x24)-2 (x24)-0 (x24)-3-------0 (x12)--|
-5-------2-------0---------------0--------|

Then play the verse again

Followed by the chorus

Then:

Bridge
part 1
Guitar 1

-------------------------|
-------------------------|
-------------------------|
-2--------5-------0------| x4
-2(x16)---5(x8)---0(x8)--|
-2--------5-------0------|
    .          .         .

Guitar 2

This part comes in after guitar 1 has gone through the above part twice

-------------------------------------------------------|
-------------------------------------------------------|
-------------------------------------------------------|
---------10--------9--------7--------------------------| x4
-7-7-7-7---7-7-7-7--7-7-7-7--7-7-7-7--10-7-7-7-7--9-10-|
-------------------------------------------------------|
 . . . .   . . . .  . . . .  . . . .     . . . .

part 2
Guitar 1

-----------|
-----------|
-----------|
--2--------|
--2 (x32)--|
--2--------|
  .

Guitar 2

----------------------------|
----------------------------|
----------------------------|
----------------------------|
-7--9--10--12--10--12--14---|
----------------------------|

Then,go back to the chorus,and end on:

Guitar 1

--------------|
--------------|
--------------|
--5-----------|
--5(let ring)-
--5-----------

Guitar 2

-----------|
-----------|
--12-------|
--x (x36)--|
--10-------|
-----------|

Thanks!hope you think its all right email me at 
if you think theres anything wrong or leave a comment thanks
Добавлено: 05.06.2012
Другие материалы по этой песне:
  • Аккорды и текст

Страница создана 05.06.2012
http://primanota.ru/aiden/city-is-far-from-here-chords.htm
Привет, Гость.
Предлагаем пройти революционный курс по гитаре.
Подарок от PrimaNota.Ru, забирай!