PrimaNota.ru - самый крупный в мире бесплатный архив песенных текстов, аккордов, табулатур и нот


Aiden - Bliss - таба, видео

Регистрация Запомнить меня
Войти через:  Facebook Google Twitter Vk Yandex Mail.ru

Aiden - Bliss - таба, видео

Печатать
Просмотров: 136
Уроки эстрадного вокала в Санкт-Петербурге
(This was a request tab by les paul fan)
My head phones are crappy so i couldnt hear the chords for the chorus that
well so feel free to correct if they are that awful.
Hope you like the tab.

Intro theme
E|---------------------------------------------------------|
B|---------------------------------------------------------|
G|---2--2--2--2---2--2---2--2--2---2---2---2---2--2---2--2-|
D|-0--0---3--3---------3--3----------3---3----------3--3---|
A|--------------3--3----------1--1-----------0--0----------|
D|---------------------------------------------------------|

(0:26)
                x3
E|---------------|-----------------------------|
B|---------------|-----------------------------|
G|---------5---5-|----------5-5h7p7-  at (0:40-| switch to
D|-7-7-7-7---7---|-7-7-7-7---------------------|  play just 2nd part
A|---------------|-----------------------------|
D|---------------|-----------------------------|
  pm-------------------------------------------|

(0:47)
E|-x-x-x-x-x-x-x-|
B|-x-x-x-x-x-x-x-|
G|-x-x-x-x-x-x-x-|
D|-x-x-x-x-x-x-x-|
A|-x-x-x-x-x-x-x-|
D|-x-x-x-x-x-x-x-|

Chorus: Lead (0:48)
E|------------------|
B|------------------|
G|---5---5----------|
D|-7---7---7--5---5-|
A|--------------8---|
D|------------------|

Chorus: Rhythm
E|------------|
B|------------|  Work out strumming patterns
G|----------5-|
D|-7--5--3--5-|
A|-7--5--3--3-|
D|-7--5--3----|

verse 2
E|------------------|
B|-------------5--5-|
G|-----------5--5---|
D|-7-7-7-7-7--------|
A|------------------|
D|------------------|

(2:18) delay effect
E|--------------------|
B|-------5--5---------|
G|-----5--5-----------|
D|-7-7--------7-7-7-7-|
A|--------------------|
D|--------------------|

Final chorus: same chords but the lead switches from different
earlier formations.
Enjoy :)
Добавлено: 25.04.2012
Другие материалы по этой песне:

Страница создана 07.04.2012
http://primanota.ru/aiden/bliss-chords.htm
Привет, Гость.
Предлагаем пройти революционный курс по гитаре.
Подарок от PrimaNota.Ru, забирай!